:: Guitar & Bass Tabs Make Home Page
A B C D E F G H I J K L M N O P Q R S T U V W X Y Z #

  for    

On TABSPACE
Info About This Tab
Artist: Jake Smith
Tab Type: Guitar
Rate This Tab!
Jake Smith- This Is Certain
Tabbed by: Denis Lafargue

Chords Used:
C/F  C   G  Bb
0    0   0  1
1    1   1  3
2    0   0  3
3    2   0  3
3    3   2  1
x    x   3  x

1st Time
---------------------------------------------|
---------------------------5/7/5----5/7/5----|
-----5-----5-----5-----5---5/7/5----5/7/5----|
-----5-----5-----5-----5---5/7/5----5/7/5----|
---------------------------------------------|
-3h5---3h5---3h5---3h5-----------------------|

2nd Time
--------------------------------------------|
---------------------------1-1----1-1-------|
-----5-----5-----5-----5---2-0----2-0-------|
-----5-----5-----5-----5---3-3----3-3-------|
---------------------------3-3----3-3-------|
-3h5---3h5---3h5---3h5----------------------|

Verse:
--------------------------------------------|
---------------------------1-1----1-1-------|
-----5-----5-----5-----5---2-0----2-0-------|
-----5-----5-----5-----5---3-3----3-3-------|
---------------------------3-3----3-3-------|
-3h5---3h5---3h5---3h5----------------------|

PreChorus:
        G                         C/F
Cause tonight love, everything is in it's place
                           G
and you don't have to be scared love,
                  C/F                    G
you just have to trust in him when it happens again.

Intro Prt 2: 2xs (echo "Happens Again" once)
--------------------------------------------|
---------------------------1-1----1-1-------|
-----5-----5-----5-----5---2-0----2-0-------|
-----5-----5-----5-----5---3-3----3-3-------|
---------------------------3-3----3-3-------|
-3h5---3h5---3h5---3h5----------------------|

Verse: play the G only the first time through
------------------------------------------|
-------------------11-1-11-1-11-1-11------|
--55--55--55-------22-0h22-0h22-0h22------|
--55--55--55---5---33-3-33-3-33-3-33------|
--xx--xx--xx---5---33-3-33-3-33-3-33------|
--55--55--55---3--------------------------|

PreChorus:
        G                         C/F
Cause tonight love, everything is in it's place
                           G
and you don't have to be scared love,
                  C/F                     G
you just have to trust in him when it happens again.

Chorus:
     C/F                C         G
Cause I can't take this I Dont' understand
     C/F                C
But after the rain the sun will shine
                     G              Bb G
and all will be made new again love      this is certain

Bridge 2xs
C/F           C      G
The Sun Will Shiiiiiine

Chorus 2xs (picking)


Share "This Is Certain" by Jake Smith


TOP 10 TABS

FRESH NEW TABS

ALL ARTISTS
artist wiki

mp3bear.com
song lyrics / contact us / privacy policy / tabspace toolbar
Copyright 2004 - 2014 TabSpace.com - All Rights Reserved.
song: this is certain guitar tabs by jake smith

0.014