:: Guitar & Bass Tabs Make Home Page
A B C D E F G H I J K L M N O P Q R S T U V W X Y Z #

  for    

On TABSPACE
Info About This Tab
Artist: Misc Television
Tab Type: Bass
Difficulty: novice
Rate This Tab!
-------------------------------------------------------------------------------
			     THOMAS THE TANK ENGINE - Misc Television
-------------------------------------------------------------------------------

Tabbed By : WibbleWobble
e-mail: organisedchaos@talktalk.net

Tuning: standard EADG

For my boy Liam

G|-------4-4-6----------------------------------------------------------4-6--|
D|-4-5-6-------6---7---7-5-7-----7-5--4-5-4-5-4-55-4-5-4-5-4-7-7----4-6------|
A|-------------------7-------7-7----------------------------------8----------|
E|---------------------------------------------------------------------------|

G|---3-4---------------------------------------5-5-3----13-------------------|
D|-6-------2-1-0-----------6-6-6-6-4---------6-------6/----------------------|
A|---------------4-4-4-4-6-----------4-4-4-4---------------------------------|
E|---------------------------------------------------------------------------|




Share "Thomas The Tank Engine Theme" by Misc Television


TOP 10 TABS

FRESH NEW TABS

ALL ARTISTS
artist wiki

mp3bear.com
song lyrics / contact us / privacy policy / tabspace toolbar
Copyright 2004 - 2014 TabSpace.com - All Rights Reserved.
song: thomas the tank engine theme bass tabs by misc television

0.007