:: Guitar & Bass Tabs Make Home Page
A B C D E F G H I J K L M N O P Q R S T U V W X Y Z #

  for    

On TABSPACE
Info About This Tab
Artist: One Over
Tab Type: Bass
Rate This Tab!
ONE OVER
THREE

Intro
G-|-------------------------------------------------------------------------------------------------------------------
D-|-------------------------------------------------------------------------------------------------------------------
A-|-------------------------------------------------------------------------------------------------------------------
E-|-0-0-0--3---0-0-0--2-1---0-0-0--3---0-0-0--2-1---0-0-0--3---0-0-0---2-1---0-0-0--3-00--------------



G-|----------------------------------------------------------------------------------------------------------------
D-|----------------------------------------------------------------------------------------------------------------
A-|---------------------------------------------------------------------------------------------------{
E-|--444--4--44--44---43-------------------------------------------------------------------------{ 
x8

1st verse
G-|-------------------------------------------------------------------------------------------------------------------
D-|-------------------------------------------------------------------------------------------------------------------
A-|-------------------------------------------------------------------------------------------------------------------
E-|--0-1-0-1-0---2---3-4-3-4-3---2---------------------{ x4   (on 4th add 
444--4--44--44--43 )

Pre-chorus
G-|--------------------------------------------------------------------------------------------------------------------

D-|--------------------------------------------------------------------------------------------------------------------
A-|-----------------------------------------------------------------------{
E-|--5~~~~~~--7~~~~~~~~~--6~~~~~~~--8~~-9~~~~~--------{ x2

Chorus
G-|------------------------------------------------------------------------------------------------------------------
D-|------------------------------------------------------------------------------------------------------------------
A-|---------------------------------------------------------------------{
E-|--4-4-4-4--5----4-4-4-4-4--5-5---------------------------------{ x8 (let 
ring on last note)

Bridge
G-|-----------------------------------------------------------------------------------------------------------------
D-|-----------------------------------------------------------------------------------------------------------------
A-|-------------------------------------------------------------------{
E-|--0-0000----^---0-0000----^----0-0000---^----0-0000-----{ x2   (^ = rest)

Bridge (cont.)
G-|--------------------------------------------------------------------------------------------------------------------
D-|--------------------------------------------------------------------------------------------------------------------
A-|----------------------------------------------------------------------------------------------{
E-|--88888-88888-88---77777-77777-77---66666-66666-66---55555-55555-55---{ 
x2


Chorus
G-|-----------------------------------------------------------------------------------------------------------------
D-|-----------------------------------------------------------------------------------------------------------------
A-|----------------------------------------------------------------------{
E-|--1-1-1-1--2---1-1-1-1-1--2-2-----------------------------------{ x4

Ending
G-|------------------------------------------------------------------------------------------------------------------
D-|------------------------------------------------------------------------------------------------------------------
A-|-----------------------------------------------------------------{
E-|--0-00--3--2-2--1~~---0-00--3--2-2--1--------------------{ x6

Bass, vocals: Ace Gentner               Lead guitar, vocals: Brian Thompson  
         Guitar: Steve Browne
Drums: Mark Michaletti



Share "Three" by One Over


TOP 10 TABS

FRESH NEW TABS

ALL ARTISTS
artist wiki

mp3bear.com
song lyrics / contact us / privacy policy / tabspace toolbar
Copyright 2004 - 2014 TabSpace.com - All Rights Reserved.
song: three bass tabs by one over

0.01