:: Guitar & Bass Tabs Make Home Page
A B C D E F G H I J K L M N O P Q R S T U V W X Y Z #

  for    

On TABSPACE
Info About This Tab
Artist: Misc Television
Tab Type: Guitar
Rate This Tab!
TV Themes
Three's Company Theme
Tuning: Standard
Transcribed by Soch H.

Gtr I (E A D G B E) - 'Electric Guitar' w/ wah

 Intro w/ wah
                      ~~
|------------------|-14--14----------------|
|----------13--16--|---------16------------|
|------15----------|-------------15-----14-|
|------------------|----------------13-----|
|------------------|-----------------------|
|------------------|-----------------------|

         ~~
|------------------------------------|
|------------------------------------|
|-------14-------14--13--11----------|
|----------------------------13--11--|
|------------------------------------|
|------------------------------------|

|                      ~~
|------------------------|---------------------|
|------------------------|---------------------|
|------------------------|---------------------|
|-13--13--11--13--11-----|---------------------|
|---------------------13-|---------------------|
|------------------------|---------------------|

|                                           ~~
|-14-----13--------------|-----------------------|
|-----16----16-----------|-----13--15--13--------|
|-----------------15-13--|-15--------------15----|
|--------------13--------|-----------------------|
|------------------------|-----------------------|
|------------------------|-----------------------|


 Theme/Verse: Lyrics:
Come and Knock On Our Door		  We've been waiting for you,
|-------------6-8---|----------------|------------6-8---|------------------|
|-----------8-----8-|----------------|----------8-----8-|------------------|
|---------8---------|----------------|--------8---------|------------------|
|-------8-----------|----------------|------8-----------|------------------|
|-------------------|----------------|------------------|------------------|
|-------------------|----------------|------------------|------------------|

           Where the kisses are hers and hers and his, three's company too.
|------------6-8---|-10---8--10--8-10-|-------8--6---------|------------|
|----------8-------|------------------|------------8--6----|------------|
|--------8---------|------------------|------------------8-|------------|
|------8-----------|------------------|--------------------|------------|
|------------------|------------------|--------------------|------------|
|------------------|------------------|--------------------|------------|

Come and dance on our floor.			  Take a step that is new,
|---------6-8---|------------------|------------6-8---|------------------|
|-------8-----8-|------------------|----------8-----8-|------------------|
|-----8---------|------------------|--------8---------|------------------|
|---8-----------|------------------|------8-----------|------------------|
|---------------|------------------|------------------|------------------|
|---------------|------------------|------------------|------------------|

       We've a lovable space that needs your face, three's company too.
|------------6-8---|-10---8--10--8-10-|-(10)--8--6---------|------------|
|----------8-------|------------------|------------8--6----|------------|
|--------8---------|------------------|------------------8-|-(8)--------|
|------8-----------|------------------|--------------------|------------|
|------------------|------------------|--------------------|------------|
|------------------|------------------|--------------------|------------|


Outro:

   You'll see that life is a ball again,      laughter is calling for you. 
|-------------|-10---------11-------10-----|-------------------------------|
|-----11--13--|----14--13--------------14--|-13--12--11--14-------13-12-11-|
|-12----------|----------------------------|-------------------------------|
|-------------|----------------------------|-------------------------------|
|-------------|----------------------------|-------------------------------|
|-------------|----------------------------|-------------------------------|

|----13------15------13-----|-20---------------|
|-16--------------------16--|------------------|
|-15------------------------|------------------|
|---------------------------|------------------|
|---------------------------|------------------|
|---------------------------|------------------|

Down at our rendezvous, Three is company too.
|------------6-8---|--------------------|
|----------8-----8-|------8----8--------|
|--------8---------|--------10---8----8-|
|------8-----------|---------------10---|
|------------------|--------------------|
|------------------|--------------------|


|------------|---------------|-10---------11-------10-----|
|------------|-------11--13--|----14--13--------------14--|
|------------|---12----------|----------------------------|
|------------|---------------|----------------------------|
|------------|---------------|----------------------------|
|------------|---------------|----------------------------|

                                 
|-----------------------------|---------------------------|
|-13--12--11--14-------13-12--|-11------------------------|
|-----------------------------|---------------------------|
|-----------------------------|---------------------------|
|-----------------------------|---------------------------|
|-----------------------------|---------------------------|


|----13------15------13----20---|
|-16--------------------16------|
|-15----------------------------|
|-------------------------------|
|-------------------------------|
|-------------------------------|


|------------6-8---|
|----------8-----8-|
|--------8---------|
|------8-----------|
|------------------|
|------------------|


|--------------------|------------*|
|------8----8--------|------------*|
|--------10---8----8-|-(8)--------*|
|---------------10---|------------*|
|--------------------|------------*|
|--------------------|------------*|


Share "Threes Company Theme" by Misc Television


TOP 10 TABS

FRESH NEW TABS

ALL ARTISTS
artist wiki

mp3bear.com
song lyrics / contact us / privacy policy / tabspace toolbar
Copyright 2004 - 2014 TabSpace.com - All Rights Reserved.
song: threes company theme guitar tabs by misc television

0.019