:: Guitar & Bass Tabs Make Home Page
A B C D E F G H I J K L M N O P Q R S T U V W X Y Z #

  for    

On TABSPACE
Info About This Tab
Artist: Tokio Hotel
Tab Type: Bass
Difficulty: advanced
Rate This Tab!
Tokio Hotel
Monsoon

bass tab

INTRO

g---------------------------------|    X2
d---------------------------------|
a-6-6-6-6-6-6-6-6-----------------|
e-----------------7-7-7-7-7-7-7-6-|

VERSE x2

g------------------------------------------------------------------|
d------------------------------------------------------------------|
a-6-6-6-6-6-6-6-6------------------6-6-6-6-6-6-6-6-----------------|
e-----------------7-7-7-7-7-7-7-6------------------7-7-7-7-7-7-7-6-|

g------------------------------------------------------------------|
d------------------------------------------------------------------|
a-6-6-6-6-6-6-6-6------------------6-6-6-6-6-6-6-6-----------------|
e-----------------7-7-7-7-7-7-7-6------------------7-7-7-7-7-7-7-6-|

CHORUS

g------------------------------------------------------------------|
d------------------------------------------------------------------|
a-2-2-2-2-2-2-2-2-4-4-4-4-4-4-4-4--6-6-6-6-6-6-6-6-4-4-4-4-4-4-4-4-|
e------------------------------------------------------------------|

g-----------------------------------------------------------------|
d-----------------------------------------------------------------|
a-2-2-2-2-2-2-2-2-4-4-4-4-4-4-4-4-----------------6-6-6-6-6-6-6-6-|
e----------------------------------6-6-6-6-6-6-6-6----------------|

g--------------------------------|
d--------------------------------|
a-2-2-2-2-2-2-2-2-4--------------|
e--------------------------------|

intro
verse

CHORUS

g------------------------------------------------------------------|
d------------------------------------------------------------------|
a-2-2-2-2-2-2-2-2-4-4-4-4-4-4-4-4--6-6-6-6-6-6-6-6-4-4-4-4-4-4-4-4-|
e------------------------------------------------------------------|

g-----------------------------------------------------------------|
d-----------------------------------------------------------------|
a-2-2-2-2-2-2-2-2-4-4-4-4-4-4-4-4-----------------6-6-6-6-6-6-6-6-|
e----------------------------------6-6-6-6-6-6-6-6----------------|

g------------------------------------------------------------------|
d------------------------------------------------------------------|
a-2-2-2-2-2-2-2-2-4-4-4-4-4-4-4-4--6-6-6-6-6-6-6-6-4-4-4-4-4-4-4-4-|
e------------------------------------------------------------------|

g---------------------------------|
d---------------------------------|
a-2-2-2-2-2-2-2-2-4-4-4-4-4-4-4-4-|
e---------------------------------|


BRIDGE

g------------------------------------------------------------------|  x3
d------------------------------------------------------------------|
a-6-6-6-6-6-6-6-6------------------6-6-6-6-6-6-6-6-----------------|
e-----------------7-7-7-7-7-7-7-6------------------7-7-7-7-7-7-7-6-|


g--
d--
a-6 let ring
e--

acustic interlude (bass tacet)

LAST CHORUS

g------------------------------------------------------------------|
d------------------------------------------------------------------|
a-2-2-2-2-2-2-2-2-4-4-4-4-4-4-4-4--6-6-6-6-6-6-6-6-4-4-4-4-4-4-4-4-|
e------------------------------------------------------------------|

g-----------------------------------------------------------------|
d-----------------------------------------------------------------|
a-2-2-2-2-2-2-2-2-4-4-4-4-4-4-4-4-----------------6-6-6-6-6-6-6-6-|
e----------------------------------6-6-6-6-6-6-6-6----------------|

g------------------------------------------------------------------|
d------------------------------------------------------------------|
a-2-2-2-2-2-2-2-2-4-4-4-4-4-4-4-4--6-6-6-6-6-6-6-6-4-4-4-4-4-4-4-4-|
e------------------------------------------------------------------|

g---------------------------------|
d---------------------------------|
a-2-2-2-2-2-2-2-2-4-4-4-4-4-4-4-4-|
e---------------------------------|


g------------------------------------------------------------------|  x2
d------------------------------------------------------------------|
a-6-6-6-6-6-6-6-6------------------6-6-6-6-6-6-6-6-----------------|
e-----------------7-7-7-7-7-7-7-6------------------7-7-7-7-7-7-7-6-|


ENDS ON

g----------|
d----------|
a-6-6-6-6--|
e--------7-| let ring


Share "Through The Monsoon" by Tokio Hotel


TOP 10 TABS

FRESH NEW TABS

ALL ARTISTS
artist wiki

mp3bear.com
song lyrics / contact us / privacy policy / tabspace toolbar
Copyright 2004 - 2014 TabSpace.com - All Rights Reserved.
song: through the monsoon bass tabs by tokio hotel

0.01