:: Guitar & Bass Tabs Make Home Page
A B C D E F G H I J K L M N O P Q R S T U V W X Y Z #

  for    

On TABSPACE
Info About This Tab
Artist: Ac Dc
Tab Type: Guitar
Rate This Tab!
Intro: (guitar 1)
E------------------------------------|--------------------------------|
B--0h4p0h7p0h4p0h7p0h4p0h7p0h4p0h7p0h|4p0h7p0h4p0h7p0h4p0h7p0h4p0h7p0h|
G------------------------------------|--------------------------------|
D------------------------------------|--------------------------------|
A------------------------------------|--------------------------------|
E------------------------------------|--------------------------------|
 
E----------------------------------|--------------------------------|
B--5p0h8p0h5p0h8p0h5p0h8p0h5p0h8p0h|5p0h8p0h5p0h8p0h5p0h8p0h5p0h8p0h|
G----------------------------------|--------------------------------|
D----------------------------------|--------------------------------|
A----------------------------------|--------------------------------|
E----------------------------------|--------------------------------|

E-------------------------------------|--------------------------------|
B--12p0h10p0h9p0h10p0h9p0h7p0h9p0h5p0h|7p0h4p0h5p0h4p0h5p0h4p0h5p0h4p0h|
G-------------------------------------|--------------------------------|
D-------------------------------------|--------------------------------|
A-------------------------------------|--------------------------------|
E-------------------------------------|--------------------------------|

Verse(guitar 2)
Mute
E--------------------------------|-------------------------------|
B--------------------------------|-------------------------------|
G----4-----4-----4---4-----4-----|---4-----4-----4---4-----4-----|
D----4-----4-----4---4-----4-----|---4-----4-----4---4-----4-----|
A--2---2-------2-------2-------2-|-2---2-------2-------2-------2-|
E--------------------------------|-------------------------------|

                           
Prechorus/chorus: (guitar 3)
E-------------------|------------------------|
B-------------------|------------------------|
G-------------------|------------------------|
D-4-----------2-----|---2---2----------------|
A-2-----------0-2---|---0---0---2------------|
E---------------0---|-----------0------------|

Verse 2 (guitar 3)
E-----------------------|
B-----------------------|
G-----------------------|
D-4~~~~~~~~~~~~~~~~~~~~~|
A-2~~~~~~~~~~~~~~~~~~~~~|
E-----------------------|

E------------------|-----------------------|
B------------------|-----------------------|
G-4------2---------|--2-4---2--------------|
D-4------2------2--|--2-4---2---2----------|
A-2------0------2--|--0-2---0---2----------|
E---------------0--|------------0----------|

E--------------------|------------------------|
B--------------------|------------------------|
G--------------------|------------------------|
D-4---2--------------|-2----------------------|
A-2---0--------------|-0-------2--------------|
E---------------2-4--|---------0--------------|

E-------------------|
B-------------------|
G-------------------|
D------------4------|
A------------2------|
E-------------------|

Guitar 2
E-------------------|
B-------------------|
G-------------------|
D------4---2--------|
A-------------------|
E-------------------|

E-------------------|
B-------------------|
G-------------------|
D-------------4-----|
A-------------2-----|
E-------------------|

Guitar solo (Guitar 2)
E-------------------|------------------------|--------------------------|
B-------------------|-9--9-------------------|-10---------9-------------|
G-------------------|-9--9-------------------|-9----------9-----9b(11)--|
D-------------x\----|-9--9------9------------|-11---------9-------------|
A-------------x\----|------------------------|--------------------------|
E-------------------|------------------------|--------------------------|

E-------------------|------------------------|--------------------------|
B-------------------|------------------------|--------------------------|
G-------------------|------------------------|--------------------------|
D-------------------|-----------4----------2-|-2------------------------|
A---------------x/--|-2---------2----------0-|-0----------2-------------|
E---------------x/--|-0----------------0-2---|------------0-------------|

E-7-------------------------------|-------------------------------------|
B---10-7---7----------------------|-------------------------------------|
G--------9---7--------------------|-------------------------------------|
D--------------9--------\------7--|-7--------------9-----------9b(11)---|
A-------------------------/9------|-------------------------------------|
E---------------------------------|-------------------------------------|

E---------------------------------------|------------------------------17b-|
B---------------------------------------|----------------------------------|
G------7-9---11p9p7--11p9p7----11p9p7---|-7b(9)---r7-----------------------|
D----9----------------------9---------9-|----------------9-----------------|
A---------------------------------------|----------------------------------|
E---------------------------------------|-----------------------0--0-------|

E-(19)-17-14---------------------17-14------------|
B-----------17b(19)-17-15-17b(19)-----17-18-17-15-|
G-------------------------------------------------|
D-------------------------------------------------|
A-------------------------------------------------|
E-------------------------------------------------|

E------------------------------------------|
B----15b(17)-15b(17)-15b(17)----------\----|
G-16-----------------------------------\---|
D------------------------------------------|
A------------------------------------------|
E------------------------------------------|

E------------------|-------------------------|----------------------|
B------------------|-------------------------|----------------7-----|
Go-------------7---|-7----9-7-9b(11)--9p7----|----------------7-----|
Do-4---2-----9---9-|----------------------9--|--4------2----9-----9-|
A--2---0-----------|-------------------------|--2------0------------|
E------------------|-------------------------|----------------------|

E--------------------------------||-----------|----------------|
B-7----9---7-9b(10)-----9p7------||-----------|----------------|
G-7----9---7-9b(11)-----9p7------||-----------|----------------|
D----------------------------9---||-----------|------------x\--|
A--------------------------------||-----------|------------x\\-|
E--------------------------------||-----------|--------------\-|

Outro
E----------------------|
B----------------------|
G----------------------|
D--4---2-----------2---|
A--2---0-----------0-2-|
E--------------2-4---0-|
ab lib solo (Guitar 2 -16 bars)

end on
E---|
B---|
G---|
D-4-|
A-2-|
E---|


Share "Thunderstruck" by Ac Dc


TOP 10 TABS

FRESH NEW TABS

ALL ARTISTS
artist wiki

mp3bear.com
song lyrics / contact us / privacy policy / tabspace toolbar
Copyright 2004 - 2014 TabSpace.com - All Rights Reserved.
song: thunderstruck guitar tabs by ac dc

0.025