:: Guitar & Bass Tabs Make Home Page
A B C D E F G H I J K L M N O P Q R S T U V W X Y Z #

  for    

On TABSPACE
Info About This Tab
Artist: Hard-fi
Tab Type: Guitar
Rate This Tab!
||--------10-----12-|-(12)----10------|--------10----12-|-(12)---10------|
||o---11-----11-----|----11-----11----|---10-----10-----|---10-----10----|
||--12--12-----12---|-------12----12--|-10--10-----10---|-----10-----10--|
||------------------|-----------------|-----------------|----------------|
||o-----------------|-----------------|-----------------|----------------|
||------------------|-----------------|-----------------|----------------|


|-------9------10-|-(10)----9-------|--------12-10----|------10-9-----||
|--10-----10------|----10-----10----|---10--------10--|--10-------10-o||
|-9---9------9----|-------9------9--|-10---10---------|-9---9---------||
|-----------------|-----------------|-----------------|---------------||
|-----------------|-----------------|-----------------|--------------o||
|-----------------|-----------------|-----------------|---------------||


this is the intro and the same when repeated during the song methinks 


Share "Tied Up Too Tight Intro" by Hard-fi


TOP 10 TABS

FRESH NEW TABS

ALL ARTISTS
artist wiki

mp3bear.com
song lyrics / contact us / privacy policy / tabspace toolbar
Copyright 2004 - 2014 TabSpace.com - All Rights Reserved.
song: tied up too tight intro guitar tabs by hard-fi

0.016