:: Guitar & Bass Tabs Make Home Page
A B C D E F G H I J K L M N O P Q R S T U V W X Y Z #

  for    

On TABSPACE
Info About This Tab
Artist: Tokio Hotel
Tab Type: Guitar
Rate This Tab!
Tabulatura do totgeliebt ^^ I'm Polish xD by Sylwia

W zwrotkach cały czas tlumimy dzwieki 


ZWROTKA:
Ich halt den Brief...solang er noch brennt
E-----------|      E-----------|          }
B-----------|      B-----------|          }
G-----------| x8   G-----------| x8       } x2
D-----------|      D-----------|          } 
A--6--------|      A--7--------|          }
E--4--------|      E--4--------|           


schau ich ihn an 
E----------------|
B----------------|
G--2-------------|
D--2-------------| x12
A--2-------------|
E----------------|


Mit jeder Zeile...eine Schauer von dir 
E-----------|      E-----------|          }
B-----------|      B-----------|          }
G-----------| x8   G-----------| x8       } x2
D-----------|      D-----------|          } 
A--6--------|      A--7--------|          }
E--4--------|      E--4--------|           

E----------------|
B----------------|
G----------------|
D----------------| x8
A--6-------------|
E--0-------------|


E----------------|       E---------------|   
B----------------|       B---------------|
G--4-------------|       G--3------------| 
D--4-------------| x8    D--3------------|  
A--2-------------|       A--1------------|   
E----------------|       E---------------|

es bringt mich um


REFREN (Już gramy bez tłumienia)
Wir haben uns totgeliebt 

E----------|      E----------|       E----------|       E---------|    }     
B----------|      B----------|       B----------|       B---------|    } 
G----------|      G--9-------|       G--4-------|       G--1------|    } x4
D--6-------| x8   D--9-------| x8    D--4-------| x8    D--3------|    }
A--6-------|      A--7-------|       A--2-------|       A--1------|    }
E--4-------|      E----------|       E----------|       E---------|  


es ist vorbei


THE END xD
by Sylwia from poland ^^ TH 4ever


Share "Totgeliebt" by Tokio Hotel


TOP 10 TABS

FRESH NEW TABS

ALL ARTISTS
artist wiki

mp3bear.com
song lyrics / contact us / privacy policy / tabspace toolbar
Copyright 2004 - 2014 TabSpace.com - All Rights Reserved.
song: totgeliebt guitar tabs by tokio hotel

0.015