:: Guitar & Bass Tabs Make Home Page
A B C D E F G H I J K L M N O P Q R S T U V W X Y Z #

  for    

On TABSPACE
Info About This Tab
Artist: Misc Television
Tab Type: Guitar
Rate This Tab!
Artist: Misc Television
Title : Travel Channel Commercial (Be a ...)


Tabbed by: Dj MoNkEy/dustin7up
E-mail   : dustin7up@gmail.com
Tuning   : Standard {E,A,D,G,B,e}


October 1, 2006


{NOTE: I know this might not be 100% perfect,
       this is just how I play it. And it sounds
       good to me. Hope you like it!}






e|------Watch-the-Commercial:----------------------------------|
B|http://video.google.com/videoplay?docid=8240983538338714287--|
G|-------------------------------------------------------------|
D|------Listen-to-the-Commercial:------------------------------|
A|http://www.geocities.com/djmonkeys_music07/travel_channel.mp3|
E|-------------------------------------------------------------|



Intro: (00:00 - 00:24) {Repeat 4x}
e|--------------------------------------------------------|
B|-----------------------19-19-19--15-15-15---------------|
G|---16-16-16--14-14-14----------------------14-14-14-14--|
D|--------------------------------------------------------|
A|--------------------------------------------------------|
E|--------------------------------------------------------|

e|--------------------------------------------------------|
B|--------------------------------------------------------|
G|--18-18-18--14-14-14--19-19-19--14-14-14--18-18--14-14--|
D|--------------------------------------------------------|
A|--------------------------------------------------------|
E|--------------------------------------------------------|



Solo: (00:25 - 01:00)
e|--------------------------------------------------------|
B|--------------------------------------------------------|
G|--14/16--16-16--11-11-11-11--11/14--14-14--11-11-11-11--|
D|--------------------------------------------------------|
A|--------------------------------------------------------|
E|--------------------------------------------------------|

e|--------------------------------------------------------|
B|--------------------------------------------------------|
G|--11/14--14-14----14\13--13\11--11\9--9-9-9-9-----------|
D|--------------------------------------------------------|
A|--------------------------------------------------------|
E|--------------------------------------------------------|

e|--------------------------------------------------------|
B|--------------------------------------------------------|
G|--16p13-16p13-16p13-16p13----14p11-14p11-14p11-14p11----|
D|--------------------------------------------------------|
A|--------------------------------------------------------|
E|--------------------------------------------------------|

e|--------------------------------------------------------|
B|--------------------------------------------------------|
G|--14p11-14p11-14p11-14p11----14\13--13\11--11\9--9------|
D|--------------------------------------------------------|
A|--------------------------------------------------------|
E|--------------------------------------------------------|

e|--------------------------------------------------------|
B|--------------------------------------------------------|
G|--16p13-16p13-16p13-16p13----14p11-14p11-14p11-14p11----|
D|--------------------------------------------------------|
A|--------------------------------------------------------|
E|--------------------------------------------------------|

e|--------------------------------------------------------|
B|--------------------------------------------------------|
G|--14p11-14p11-14p11-14p11----14\13--13\11--11\9--9------|
D|--------------------------------------------------------|
A|--------------------------------------------------------|
E|--------------------------------------------------------|

e|--------------------------------------------------------|
B|--------------------------------------------------------|
G|--16p13-16p13-16p13-16p13----18p15-18p15-18p15-18p15----|
D|--------------------------------------------------------|
A|--------------------------------------------------------|
E|--------------------------------------------------------|

e|--------------------------------------------------------|
B|--------------------------------------------------------|
G|--18p15-18p15-18p15-18p15----14/16--16-16--11-11-11-11--|
D|--------------------------------------------------------|
A|--------------------------------------------------------|
E|--------------------------------------------------------|

e|---------------------------------------------------------------------------|
B|---------------------------------------------------------------------------|
G|--11/14--14-14--11-11-11-11--11/14--14-14----14\13--13\11--11\9--9-9-9-9~--|
D|---------------------------------------------------------------------------|
A|---------------------------------------------------------------------------|
E|---------------------------------------------------------------------------|





Share "Travel Channel Commercial" by Misc Television


TOP 10 TABS

FRESH NEW TABS

ALL ARTISTS
artist wiki

mp3bear.com
song lyrics / contact us / privacy policy / tabspace toolbar
Copyright 2004 - 2014 TabSpace.com - All Rights Reserved.
song: travel channel commercial guitar tabs by misc television

0.01