:: Guitar & Bass Tabs Make Home Page
A B C D E F G H I J K L M N O P Q R S T U V W X Y Z #

  for    

On TABSPACE
Info About This Tab
Artist: Tokio Hotel
Tab Type: Bass
Difficulty: novice
Rate This Tab!
Through The Monsoon                               


                               Tokio Hotel
Bass



     Q    E  Q    E  Q       Q    E  Q    E  Q       Q    E  Q    E  Q     
G||-----------------------|-----------------------|-----------------------|
D||-----------------------|-----------------------|-----------------------|
A||-----------------------|-----------------------|-----------------------|
E||--4----4--5----5--4----|--0----0--1----1--0----|--4----4--5----5--4----|


  Q    E  Q    E  Q       Q    E  Q    E  Q       Q    E  Q    E  Q     
-----------------------|-----------------------|-----------------------|
-----------------------|-----------------------|-----------------------|
-----------------------|-----------------------|-----------------------|
--0----0--1----1--0----|--4----4--5----5--4----|--0----0--1----1--0----|


  Q    E  Q    E  Q       Q    E  Q    E  Q       Q    E  Q    E  Q     
-----------------------|-----------------------|-----------------------|
-----------------------|-----------------------|--7----7--7----7--7----|
-----------------------|-----------------------|-----------------------|
--4----4--5----5--4----|--0----0--1----1--0----|-----------------------|


  Q    E  Q    E  Q       Q    E  Q    E  Q       Q    E  Q    E  Q     
-----------------------|-----------------------|-----------------------|
--5----5--5----5--5----|-----------------------|-----------------------|
-----------------------|-----------------------|-----------------------|
-----------------------|--4----4--5----5--4----|--0----0--1----1--0----|


  Q    E  Q    E  Q       Q    E  Q    E  Q       Q    E  Q    E  Q     
-----------------------|-----------------------|-----------------------|
-----------------------|-----------------------|-----------------------|
-----------------------|-----------------------|-----------------------|
--4----4--5----5--4----|--0----0--1----1--0----|--4----4--5----5--4----|


  Q    E  Q    E  Q       Q    E  Q    E  Q       Q    E  Q    E  Q     
-----------------------|-----------------------|-----------------------|
-----------------------|-----------------------|-----------------------|
-----------------------|-----------------------|-----------------------|
--0----0--1----1--0----|--4----4--5----5--4----|--0----0--1----1--0----|


  E  E  E  E  E  E  E  E     E  E  E  E  E  E  E  E   
--------------------------|--------------------------|
--------------------------|--------------------------|
--3--3--3--3--3--3--3--3--|--5--5--5--5--5--5--5--5--|
--------------------------|--------------------------|


  E  E  E  E  E  E  E  E     E  E  E  E  E  E  E  E   
--------------------------|--------------------------|
--------------------------|--------------------------|
--7--7--7--7--7--7--7--7--|--------------------------|
--------------------------|--7--7--7--7--7--7--7--7--|


  E  E  E  E  E  E  E  E     E  E  E  E  E  E  E  E   
--------------------------|--------------------------|
--------------------------|--------------------------|
--3--3--3--3--3--3--3--3--|--5--5--5--5--5--5--5--5--|
--------------------------|--------------------------|


  E  E  E  E  E  E  E  E     E  E  E  E  E  E  E  E   
--------------------------|--------------------------|
--------------------------|--------------------------|
--------------------------|--7--7--7--7--7--7--7--7--|
--7--7--7--7--7--7--7--7--|--------------------------|


  E  E  E  E  E  E  E  E     Q    Q    Q    Q        Q     E   Q     E   Q     
--------------------------|----------------------|--13----13--14----14--13----|
--------------------------|----------------------|--14----14--14----14--14----|
--3--3--3--3--3--3--3--3--|--5----L----L----L----|----------------------------|
--------------------------|----------------------|----------------------------|


  Q    E  Q    E  Q       Q    E  Q    E  Q       Q    E  Q    E  Q     
-----------------------|-----------------------|-----------------------|
-----------------------|-----------------------|-----------------------|
-----------------------|-----------------------|-----------------------|
--0----0--1----1--0----|--4----4--5----5--4----|--0----0--1----1--0----|


  Q    E  Q    E  Q       Q    E  Q    E  Q       Q    E  Q    E  Q     
-----------------------|-----------------------|-----------------------|
-----------------------|-----------------------|-----------------------|
-----------------------|-----------------------|-----------------------|
--4----4--5----5--4----|--0----0--1----1--0----|--4----4--5----5--4----|


  Q    E  Q    E  Q       Q    E  Q    E  Q       Q    E  Q    E  Q     
-----------------------|-----------------------|-----------------------|
-----------------------|-----------------------|-----------------------|
-----------------------|-----------------------|-----------------------|
--0----0--1----1--0----|--4----4--5----5--4----|--0----0--1----1--0----|


  Q    E  Q    E  Q       Q    E  Q    E  Q       Q    E  Q    E  Q     
-----------------------|-----------------------|-----------------------|
--7----7--7----7--7----|--5----5--5----5--5----|-----------------------|
-----------------------|-----------------------|-----------------------|
-----------------------|-----------------------|--4----4--5----5--4----|


  Q    E  Q    E  Q       Q    E  Q    E  Q       Q    E  Q    E  Q     
-----------------------|-----------------------|-----------------------|
-----------------------|-----------------------|-----------------------|
-----------------------|-----------------------|-----------------------|
--0----0--1----1--0----|--4----4--5----5--4----|--0----0--1----1--0----|


  Q    E  Q    E  Q       Q    E  Q    E  Q       Q    E  Q    E  Q     
-----------------------|-----------------------|-----------------------|
-----------------------|-----------------------|-----------------------|
-----------------------|-----------------------|-----------------------|
--4----4--5----5--4----|--3----3--4----4--3----|--4----4--5----5--4----|


  Q    E  Q    E  Q       E  E  E  E  E  E  E  E     E  E  E  E  E  E  E  E   
-----------------------|--------------------------|--------------------------|
-----------------------|--------------------------|--------------------------|
-----------------------|--3--3--3--3--3--3--3--3--|--5--5--5--5--5--5--5--5--|
--3----3--4----4--3----|--------------------------|--------------------------|


  E  E  E  E  E  E  E  E     E  E  E  E  E  E  E  E   
--------------------------|--------------------------|
--------------------------|--------------------------|
--7--7--7--7--7--7--7--7--|--------------------------|
--------------------------|--7--7--7--7--7--7--7--7--|


  E  E  E  E  E  E  E  E     E  E  E  E  E  E  E  E   
--------------------------|--------------------------|
--------------------------|--------------------------|
--3--3--3--3--3--3--3--3--|--5--5--5--5--5--5--5--5--|
--------------------------|--------------------------|


  E  E  E  E  E  E  E  E     E  E  E  E  E  E  E  E   
--------------------------|--------------------------|
--------------------------|--------------------------|
--------------------------|--7--7--7--7--7--7--7--7--|
--7--7--7--7--7--7--7--7--|--------------------------|


  E  E  E  E  E  E  E  E     E  E  E  E  E  E  E  E   
--------------------------|--------------------------|
--------------------------|--------------------------|
--3--3--3--3--3--3--3--3--|--5--5--5--5--5--5--5--5--|
--------------------------|--------------------------|


  E  E  E  E  E  E  E  E     E  E  E  E  E  E  E  E   
--------------------------|--------------------------|
--------------------------|--------------------------|
--7--7--7--7--7--7--7--7--|--------------------------|
--------------------------|--7--7--7--7--7--7--7--7--|


  E  E  E  E  E  E  E  E     E  E  E  E  E  E  E  E   
--------------------------|--------------------------|
--------------------------|--------------------------|
--3--3--3--3--3--3--3--3--|--5--5--5--5--5--5--5--5--|
--------------------------|--------------------------|


  E  E  E  E  E  E  E  E     E  E  E  E  E  E  E  E   
--------------------------|--------------------------|
--7--7--7-----------x--x--|--3--3--3-----------x--x--|
--7--7--7--7--7--7--x--x--|--3--3--3--3--3--3--x--x--|
--------------------------|--------------------------|


  E  E  E  E  E  E  E  E     E  E  E  E  E  E  E  E   
--------------------------|--------------------------|
--7--7--7-----------x--x--|--3--3--3-----------x--x--|
--7--7--7--7--7--7--x--x--|--3--3--3--3--3--3--x--x--|
--------------------------|--------------------------|


  E  E  E  E  E  E  E  E     E  E  E  E  E  E  E  E   
--------------------------|--------------------------|
--7--7--7-----------x--x--|--3--3--3-----------x--x--|
--7--7--7--7--7--7--x--x--|--3--3--3--3--3--3--x--x--|
--------------------------|--------------------------|


  E  E  E  E  E  E  E  E     E  E  E  E  E  E  E  E   
--------------------------|--------------------------|
--7--7--7-----------x--x--|--3--3--3-----------x--x--|
--7--7--7--7--7--7--x--x--|--3--3--3--3--3--3--x--x--|
--------------------------|--------------------------|


  E  E  E  E  E  E  E  E     E  E  E  E  E  E  E  E   
--------------------------|--------------------------|
--7--7--7-----------x--x--|--3--3--3-----------x--x--|
--7--7--7--7--7--7--x--x--|--3--3--3--3--3--3--x--x--|
--------------------------|--------------------------|


  E  E  E  E  E  E  E  E     E  E  E  E  E  E  E  E     Q    Q    Q    Q     
--------------------------|--------------------------|----------------------|
--7--7--7-----------x--x--|--3--3--3-----------x--x--|----------------------|
--7--7--7--7--7--7--x--x--|--3--3--3--3--3--3--x--x--|----------------------|
--------------------------|--------------------------|--0----L----L----L----|


  Q    E  Q    E  Q        Q    Q    Q    Q       Q    E  Q    E  Q     
-----------------------|-----------------------|-----------------------|
-----------------------|--10----L----L----L----|-----------------------|
-----------------------|-----------------------|-----------------------|
--4----4--5----5--4----|-----------------------|--4----4--5----5--4----|


   Q    Q    Q    Q       Q    E  Q    E  Q        Q    Q    Q    Q     
-----------------------|-----------------------|-----------------------|
--10----L----L----L----|-----------------------|--10----L----L----L----|
-----------------------|-----------------------|-----------------------|
-----------------------|--4----4--5----5--4----|-----------------------|


  Q    Q    Q    Q       W                   E  E  E  E  E  E  E  E   
----------------------|-------------------|--------------------------|
----------------------|-------------------|--------------------------|
----------------------|-------------------|--3--3--3--3--3--3--3--3--|
--0----L----L----L----|--L----------------|--------------------------|


  E  E  E  E  E  E  E  E     E  E  E  E  E  E  E  E   
--------------------------|--------------------------|
--------------------------|--------------------------|
--5--5--5--5--5--5--5--5--|--7--7--7--7--7--7--7--7--|
--------------------------|--------------------------|


  E  E  E  E  E  E  E  E     E  E  E  E  E  E  E  E   
--------------------------|--------------------------|
--------------------------|--------------------------|
--------------------------|--3--3--3--3--3--3--3--3--|
--7--7--7--7--7--7--7--7--|--------------------------|


  E  E  E  E  E  E  E  E     E  E  E  E  E  E  E  E   
--------------------------|--------------------------|
--------------------------|--------------------------|
--5--5--5--5--5--5--5--5--|--------------------------|
--------------------------|--7--7--7--7--7--7--7--7--|


  E  E  E  E  E  E  E  E     E  E  E  E  E  E  E  E   
--------------------------|--------------------------|
--------------------------|--------------------------|
--7--7--7--7--7--7--7--7--|--3--3--3--3--3--3--3--3--|
--------------------------|--------------------------|


  E  E  E  E  E  E  E  E     E  E  E  E  E  E  E  E   
--------------------------|--------------------------|
--------------------------|--------------------------|
--5--5--5--5--5--5--5--5--|--7--7--7--7--7--7--7--7--|
--------------------------|--------------------------|


  E  E  E  E  E  E  E  E     E  E  E  E  E  E  E  E   
--------------------------|--------------------------|
--------------------------|--------------------------|
--------------------------|--3--3--3--3--3--3--3--3--|
--7--7--7--7--7--7--7--7--|--------------------------|


  E  E  E  E  E  E  E  E     Q    E  Q    E  Q       Q    E  Q    E  Q     
--------------------------|-----------------------|-----------------------|
--------------------------|-----------------------|-----------------------|
--5--5--5--5--5--5--5--5--|-----------------------|-----------------------|
--------------------------|--4----4--5----5--4----|--0----0--1----1--0----|


  Q    E  Q    E  Q       Q    E  Q    E  Q       Q    E  Q    E  Q     
-----------------------|-----------------------|-----------------------|
-----------------------|-----------------------|-----------------------|
-----------------------|-----------------------|-----------------------|
--4----4--5----5--4----|--0----0--1----1--0----|--4----4--5----5--4----|


  Q    E  Q    E  Q       Q    E  Q    E  Q       E  E  E  E  E  E  E  E   
-----------------------|-----------------------|--------------------------|
-----------------------|-----------------------|--------------------------|
-----------------------|-----------------------|--------------------------|
--0----0--1----1--0----|--4----4--5----5--4----|--0--0--0--0--0--0--0--0--|


  W                                  
-------------------|-------|-------||
-------------------|-------|-------||
-------------------|-------|-------||
--0----------------|-------|-------||




Duration Legend
---------------
W - whole
H - half
Q - quarter
E - 8th
S - 16th
T - 32nd
X - 64th
. - note dotted
|-n-|  - n-tuplets


Tablature Legend
----------------
L - tied note
x - dead note
g - grace note
(n) - ghost note
> - accentuded note
NH - natural harmonic
AH - artificial harmonic
TH - tapped harmonic
SH - semi harmonic
PH - pitch harmonic
h - hammer on
p - pull off
b - bend
br - bendRelease
pb - preBend
pbr - preBendRelease
brb - bendReleaseBend
\n/ - tremolo bar dip
\n - tremolo bar dive
-/n - tremolo bar Release up
/n\ - tremolo bar inverted dip
/n - tremolo bar return
-\n - tremolo bar Release down
S - shift slide
s - legato slide
/ -  slide into from below or out of upwards
\ -  slide into from above or out of downwards
~ - vibrato
W - wide vibrato
tr - trill
TP - tremolo picking
T - tapping
S - slap
P - pop
< - fade in
^ - brush up
v - brush down



Share "Trough The Monsoon" by Tokio Hotel


TOP 10 TABS

FRESH NEW TABS

ALL ARTISTS
artist wiki

mp3bear.com
song lyrics / contact us / privacy policy / tabspace toolbar
Copyright 2004 - 2014 TabSpace.com - All Rights Reserved.
song: trough the monsoon bass tabs by tokio hotel

0.015