:: Guitar & Bass Tabs Make Home Page
A B C D E F G H I J K L M N O P Q R S T U V W X Y Z #

  for    

On TABSPACE
Info About This Tab
Artist: Panda
Tab Type: Guitar
Difficulty: intermediate
Rate This Tab!
Panda - tus palabras punzocortantes!
   
Gtr1
Intro                                                                  
eb|-------------7-------------7-|-----------------12-----------------12-|
Bb|-----7-----8---------7---8---|-------12-----13-----------12----13----|
Gb|---7--------------7----------|----12------------------12-------------|
Db|-9-----9--------9-----9------|-14-------14---------14------14--------|
Ab|-----------------------------|---------------------------------------|
Eb|-----------------------------|---------------------------------------|

Yo inconsolable .......
eb|-----------------------------|-----------------------------------|
Bb|-----------------------------|-----------------------------------|
Gb|-----------------------------|-----------------------------------|
Db|-17/19-14--17/21----14/19-17-|-17h19-17h19-14--17/21----14/19-17-|
Ab|-----------------19----------|-----------------------19----------|
Eb|-----------------------------|-----------------------------------|

Gtr2
  G                                Em                               D     
Yo  inconsolable  estoy  me invade soledad
         C
Estoy mejor.

G                               Em                   D
Tu  haz  aprendido ya poder disimular
      C
Al llorar.

(coro) distr.
Yo he descubierto ya .......
eb|---------------------|-------------------------|
Bb|---------------------|-------------------------|
Gb|---------------------|-77777777-5555-44-777777-|
Db|-5555-5555-2222-2222-|-xxxxxxxx-5555-44-777777-|
Ab|-5555-5555-2222-2222-|-55555555-3333-22-555555-|
Eb|-3333-3333-0000-0000-|-------------------------|


Y hoy me siento con.......        x2  Me agradas...
eb|-3333-0000-222-000-222-000-2222--|              |-0-|
Bb|-3333-0000-333-111-333-111-3333--|              |-0-|
Gb|-0000-0000-222-000-222-000-2222--|              |-0-|
Db|-0000-2222-000-222-000-222-0000--|              |-2-|
Ab|-2222-2222-000-333-000-333-0000--|              |-2-|
Eb|-3333-0000-xxx-000-xxx-000-xxxx--|              |-0-|


  Break                       palm muted                    x3
eb|------------------------------------------------|
Bb|------------------------------------------------|
Gb|------------------------------------------------|
Db|21-21-21-19-19-19-21-21-17-17-17-17-17-17-17-17-|
Ab|------------------------------------------------|
Eb|------------------------------------------------|

eb|------------------------------------------------|
Bb|------------------------------------------------|
Gb|------------------------------------------------|
Db|21-21-21-19-19-19-17-17-16-16-16-16-16-16-16-16-|
Ab|------------------------------------------------|
Eb|------------------------------------------------|




(coro) distr.
No, no veas mis ojos no ........                x2
eb|---------------------|-------------------------|
Bb|---------------------|-------------------------|
Gb|---------------------|-77777777-5555-44-777777-|
Db|-5555-5555-2222-2222-|-xxxxxxxx-5555-44-777777-|
Ab|-5555-5555-2222-2222-|-55555555-3333-22-555555-|
Eb|-3333-3333-0000-0000-|-------------------------|


Y hoy me siento con.......        x4  
eb|-3333-0000-222-000-222-000-2222--|     
Bb|-3333-0000-333-111-333-111-3333--|           
Gb|-0000-0000-222-000-222-000-2222--|          
Db|-0000-2222-000-222-000-222-0000--|        
Ab|-2222-2222-000-333-000-333-0000--|         
Eb|-3333-0000-xxx-000-xxx-000-xxxx--|           

 
Gtr1
Outro             x6  
eb|-14h15-15-15-15--|-17-17-17-17-17-17-17-17-|
Bb|-----------------|-------------------------|
Gb|-----------------|-------------------------|
Db|-----------------|-------------------------|
Ab|-----------------|-------------------------|
Eb|-----------------|-------------------------|

                       x3
eb|14h15-15-15-15-17-15-|17-17-17-15-15-15-14-14-14-12-12-12-14-14-15-|
Bb|---------------------|---------------------------------------------|
Gb|---------------------|---------------------------------------------|
Db|---------------------|---------------------------------------------|
Ab|---------------------|---------------------------------------------|
Eb|---------------------|---------------------------------------------|


End

eb|-3-|
Bb|-3-|
Gb|-0-|
Db|-0-|        Bueno chavos eso es todo lo q pude sakar, espero les guste.   
Ab|-2-|        algun comentario o sugerencia; fisura_wave@hotmail.com
Eb|-3-|       

 



Share "Tus Palabras Punzocortantes" by Panda


TOP 10 TABS

FRESH NEW TABS

ALL ARTISTS
artist wiki

mp3bear.com
song lyrics / contact us / privacy policy / tabspace toolbar
Copyright 2004 - 2014 TabSpace.com - All Rights Reserved.
song: tus palabras punzocortantes guitar tabs by panda

0.01