:: Guitar & Bass Tabs Make Home Page
A B C D E F G H I J K L M N O P Q R S T U V W X Y Z #

  for    

On TABSPACE
Info About This Tab
Artist: Tokio Hotel
Tab Type: Guitar
Difficulty: novice
Rate This Tab!
sorry i don't know of the strum pattern for the chorus (let alone what the lead is 
in english) but this is an awesome song.
it's just down strumming.throughout the song except for the chorus. the lyrics may be a 
off but just listen to the song and you'll be good (same with the strumming)

***note that everytime you play the verse you must play the into before you play 
the verse written***


Intro:

e|--------------------------------------------------------------| [x2]
b|--------------------------------------------------------------|
g|--------------------------------------------------------------|
d|-7-7-7-4-4-4-4-2-2-2-2-2-2-2-2--7-7-7-4-4-4-4-2-2-2-2-4-4-4-4-|
a|-0-0-0-0-0-0-0-2-2-2-2-2-2-2-2--0-0-0-0-0-0-0-3-3-3-3-5-5-5-5-|
E|---------------3-3-3-3-3-3-3-3----------------3-3-3-3-5-5-5-5-|

Wir sind durch die Stadt gerannt

Verse:

e|-------------------------------| [x2]
b|-------------------------------|
g|-------------------------------|
d|-7-7-7-4-4-4-4-2-2-2-2-4-4-4-4-|
a|-0-0-0-0-0-0-0-3-3-3-3-5-5-5-5-|
E|-0-0-0-0-0-0-0-3-3-3-3-5-5-5-5-|

ham keinen Ort mehr erkannt
an dem wir nicht schon

Bridge:

e|---------------------------------|
b|---------------------------------|
g|---------------------------------|
d|-0-0-0-0-0-0-0-0-2-2-2-2-2-2-2-2-|
a|-2-2-2-2-2-2-2-2-3-3-3-3-3-3-3-3-|
E|-2-2-2-2-2-2-2-2-3-3-3-3-3-3-3-3-|

einmal waren

Intro:

e|--------------------------------------------------------------|
b|--------------------------------------------------------------|
g|--------------------------------------------------------------|
d|-7-7-7-4-4-4-4-2-2-2-2-2-2-2-2--7-7-7-4-4-4-4-2-2-2-2-4-4-4-4-|
a|-0-0-0-0-0-0-0-2-2-2-2-2-2-2-2--0-0-0-0-0-0-0-3-3-3-3-5-5-5-5-|
E|---------------3-3-3-3-3-3-3-3----------------3-3-3-3-5-5-5-5-|

Verse:

e|-------------------------------| [x2]
b|-------------------------------|
g|-------------------------------|
d|-7-7-7-4-4-4-4-2-2-2-2-4-4-4-4-|
a|-0-0-0-0-0-0-0-3-3-3-3-5-5-5-5-|
E|-0-0-0-0-0-0-0-3-3-3-3-5-5-5-5-|

Wir ham alles ausprobiert
die Freiheit endet hier
wir mussen jetzt

Bridge:

e|---------------------------|
b|---------------------------|
g|---------------------------|
d|-4-4--5-5--7-7--4-4-4-5--5-|
a|-0-0--0-0--0-0--3-3-3-3--3-|
E|---------------------------|

durch diese Wand

Pre-chorus:

e|-------------------------------| [x2]
b|-------------------------------|
g|-------------------------------|
d|-2-2-2-4-4-4-4-0-0-0-0-0-0-0-0-|
a|-3-3-3-5-5-5-5-2-2-2-2-2-2-2-2-|
E|-3-3-3-5-5-5-5-2-2-2-2-2-2-2-2-|

Verlager dein Gewicht
den Abgrund siehst du nicht

Chorus:

e|--------------------------------------------|
b|--------------------------------------------|
g|-7--9--5-----7--9--5--7--9--5--7--9-------4-|
d|-7--9--5--5--7--9--5--7--9--5--7--9--2--4-4-|
a|-5--7--3--5--5--7--3--5--7--5--5--7--3--5-2-|
E|----------3--------------------------3--5---|

Achtung fertig los und lauf
vor uns bricht der Himmel auf
Wir schaffen es zusammen
Ubers Ende dieser Welt
die hinter uns zerfallt

Intro:

e|--------------------------------------------------------------|
b|--------------------------------------------------------------|
g|--------------------------------------------------------------|
d|-7-7-7-4-4-4-4-2-2-2-2-2-2-2-2--7-7-7-4-4-4-4-2-2-2-2-4-4-4-4-|
a|-0-0-0-0-0-0-0-2-2-2-2-2-2-2-2--0-0-0-0-0-0-0-3-3-3-3-5-5-5-5-|
E|---------------3-3-3-3-3-3-3-3----------------3-3-3-3-5-5-5-5-|

Verse:

e|-------------------------------| [x2]
b|-------------------------------|
g|-------------------------------|
d|-7-7-7-4-4-4-4-2-2-2-2-4-4-4-4-|
a|-0-0-0-0-0-0-0-3-3-3-3-5-5-5-5-|
E|-0-0-0-0-0-0-0-3-3-3-3-5-5-5-5-|

Wir schauen nochmal zuruck
es ist der letzte Blick
auf alles, was fur

Bridge:

e|---------------------------|
b|---------------------------|
g|---------------------------|
d|-4-4--5-5--7-7--4-4-4-5--5-|
a|-0-0--0-0--0-0--3-3-3-3--3-|
E|---------------------------|

immer war

Intro:

e|--------------------------------------------------------------|
b|--------------------------------------------------------------|
g|--------------------------------------------------------------|
d|-7-7-7-4-4-4-4-2-2-2-2-2-2-2-2--7-7-7-4-4-4-4-2-2-2-2-4-4-4-4-|
a|-0-0-0-0-0-0-0-2-2-2-2-2-2-2-2--0-0-0-0-0-0-0-3-3-3-3-5-5-5-5-|
E|---------------3-3-3-3-3-3-3-3----------------3-3-3-3-5-5-5-5-|

Verse:

e|-------------------------------| [x2]
b|-------------------------------|
g|-------------------------------|
d|-7-7-7-4-4-4-4-2-2-2-2-4-4-4-4-|
a|-0-0-0-0-0-0-0-3-3-3-3-5-5-5-5-|
E|-0-0-0-0-0-0-0-3-3-3-3-5-5-5-5-|

Komm, atme noch, mal ein
es kann der Anfang sein
der Morgen ist

Bridge:

e|---------------------------|
b|---------------------------|
g|---------------------------|
d|-4-4--5-5--7-7--4-4-4-5--5-|
a|-0-0--0-0--0-0--3-3-3-3--3-|
E|---------------------------|


zum greifen nah

Pre-chorus:

e|-------------------------------| [x2]
b|-------------------------------|
g|-------------------------------|
d|-2-2-2-4-4-4-4-0-0-0-0-0-0-0-0-|
a|-3-3-3-5-5-5-5-2-2-2-2-2-2-2-2-|
E|-3-3-3-5-5-5-5-2-2-2-2-2-2-2-2-|

Verlager dein Gewicht
den Abgrund siehst du nicht

Chorus:

e|--------------------------------------------|
b|--------------------------------------------|
g|-7--9--5-----7--9--5--7--9--5--7--9-------4-|
d|-7--9--5--5--7--9--5--7--9--5--7--9--2--4-4-|
a|-5--7--3--5--5--7--3--5--7--5--5--7--3--5-2-|
E|----------3--------------------------3--5---|

Achtung fertig los und lauf
vor uns bricht der Himmel auf
Wir schaffen es zusammen
Ubers Ende dieser Welt
die hinter uns zerfallt

Bridge:

e|---------------------------| [x7]
b|---------------------------|
g|---------------------------|
d|-4-4--5-5--7-7--4-4-4-5--5-|
a|-0-0--0-0--0-0--3-3-3-3--3-|
E|---------------------------|

Lass es alles hinter Dir
Es gibt nichts mehr zu verlier’n
Alles hinter Dir und mir
halt uns nicht mehr auf

Pre-chorus:

e|-------------------------------|
b|-------------------------------|
g|-------------------------------|
d|-2-2-2-4-4-4-4-0-0-0-0-0-0-0-0-|
a|-3-3-3-5-5-5-5-2-2-2-2-2-2-2-2-|
E|-3-3-3-5-5-5-5-2-2-2-2-2-2-2-2-|

Verlager dein Gewicht

e|---------------------------------|
b|---------------------------------|
g|---------------------------------|
d|-2-2-2-4-4-4-4-0-0-0-0-0-2-2-2-2-|
a|-3-3-3-5-5-5-5-2-2-2-2-2-3-3-3-3-|
E|-3-3-3-5-5-5-5-2-2-2-2-2-3-3-3-3-|

Guck mir ins Gesicht

Chorus:

e|--------------------------------------------| [x2]
b|--------------------------------------------|
g|-7--9--5-----7--9--5--7--9--5--7--9-------4-|
d|-7--9--5--5--7--9--5--7--9--5--7--9--2--4-4-|
a|-5--7--3--5--5--7--3--5--7--5--5--7--3--5-2-|
E|----------3--------------------------3--5---|

Achtung fertig los und lauf
vor uns bricht der Himmel auf
Wir schaffen es zusammen
Ubers Ende dieser Welt
die hinter uns zerfallt

Intro

e|--------------------------------------------------------------|
b|--------------------------------------------------------------|
g|--------------------------------------------------------------|
d|-7-7-7-4-4-4-4-2-2-2-2-2-2-2-2--7-7-7-4-4-4-4-2-2-2-2-4-4-4-4-|
a|-0-0-0-0-0-0-0-2-2-2-2-2-2-2-2--0-0-0-0-0-0-0-3-3-3-3-5-5-5-5-|
E|---------------3-3-3-3-3-3-3-3----------------3-3-3-3-5-5-5-5-|

Verse:

e|-------------------------------|
b|-------------------------------|
g|-------------------------------|
d|-7-7-7-4-4-4-4-2-2-2-2-4-4-4-4-|
a|-0-0-0-0-0-0-0-3-3-3-3-5-5-5-5-|
E|-0-0-0-0-0-0-0-3-3-3-3-5-5-5-5-|

Outro:

e|-----------0-0-|
b|-----------0-0-|
g|-----------0-0-|
d|-4-4--5-5--2-2-|
a|-0-0--0-0--3-3-|
E|-----------3-3-|


Share "Ubers Ende Der Welt Acoustic" by Tokio Hotel


TOP 10 TABS

FRESH NEW TABS

ALL ARTISTS
artist wiki

mp3bear.com
song lyrics / contact us / privacy policy / tabspace toolbar
Copyright © 2004 - 2014 TabSpace.com - All Rights Reserved.
song: ubers ende der welt acoustic guitar tabs by tokio hotel

0.002