:: Guitar & Bass Tabs Make Home Page
A B C D E F G H I J K L M N O P Q R S T U V W X Y Z #

  for    

On TABSPACE
Info About This Tab
Artist: Oppressed
Tab Type: Guitar
Difficulty: novice
Rate This Tab!
Ultra-Violence By The Oppressed


This is a good song by The Oppressed
                      Part 1
E---------------------3-3-3-3-3-5-5-5-5-5-5----------|
A-5-5-5-5-5-5-5-5-5-5-5-5-5-5-5-7-7-7-7-7-7----------|
D-7-7-7-7-7-7-7-7-7-7--------------------------------|
G----------------------------------------------------|Play 2 Times
B----------------------------------------------------|
E----------------------------------------------------|
                      Part 2
E---------------------------3-3-3-3-3-3-3-5-5-5-5-5-5-|
A-5-5-5-5-5-5-5-2-2-2-2-2-2-5-5-5-5-5-5-5-7-7-7-7-7-7-|
5-7-7-7-7-7-7-7-4-4-4-4-4-4---------------------------|Play 5 Times
G-----------------------------------------------------|
B-----------------------------------------------------|
E-----------------------------------------------------|
                      Part 3
E-3-3-3-3-3-3-3-3-3-5-5-5-5-5-5-5-5-5-|
A-5-5-5-5-5-5-5-5-5-7-7-7-7-7-7-7-7-7-|
D-------------------------------------|
G-------------------------------------|
B-------------------------------------|
E-------------------------------------|

Do Part 1 but when you do it palm mute the notes on the E String and play it progressively slower.

                     Part 4
E---------------------------------------------------------------------------------------------|
A-5-5-5-5-5-5-5-Play once and strum when the singer says "Lets get drunk and D-7-7-7-7-7-7-7--|beat up girls! Oi Oi!"
G---------------------------------------------------------------------------------------------|
B---------------------------------------------------------------------------------------------|
E---------------------------------------------------------------------------------------------|

 Check out myspace.com\thespentrubbers for my band covering it.


Share "Ultra-violence" by Oppressed


TOP 10 TABS

FRESH NEW TABS

ALL ARTISTS
artist wiki

mp3bear.com
song lyrics / contact us / privacy policy / tabspace toolbar
Copyright 2004 - 2014 TabSpace.com - All Rights Reserved.
song: ultra-violence guitar tabs by oppressed

0.013