:: Guitar & Bass Tabs Make Home Page
A B C D E F G H I J K L M N O P Q R S T U V W X Y Z #

  for    

On TABSPACE
Info About This Tab
Artist: 36 Crazyfists
Tab Type: Guitar
Rate This Tab!
Band: 36 Crazyfists
Song: Waiting On A War
Album: The Tide And Its Takers

Tuning: Drop C (CGCFAD)

UPDATE: Fixed the Intro & Chorus. It should be just about perfect now.
 _________________
|KEY:             |
|* Pinch Harmonic |
|/ Slide Up       |
|p Pull-Off       |
|b bend           |
|h Hammer-On      |
|~ Let Note Ring  |
|_________________|

Intro A x2

Acoustic (Clean)
D|---------------------------------------------------------------------------|
A|---------------------------------------------------------------------------|
F|---------------------------------------------------------------------------|
C|------6---6-----6---6-----6---6-----6---6--------2---2-----4---4-----------|
G|----4---4-----4---4-----4---4-----4---4---4----0---0-----0---0-------------|
C|--4---------4---------4---------4------------0---------0-------------------|

continued^
|----------------------------------------------------------------------------|
|----------------------------------------------------------------------------|
|----------------------------------------------------------------------------|
|------2---2-----4---4-------------------------------------------------------|
|----0---0-----0---0---------------------------------------------------------|
|--0---------0---------------------------------------------------------------|

|----------------------------------------------------------------------------|
|----------------------------------------------------------------------------|
|----------------------------------------------------------------------------|
|------6---6-----6---6-----6---6-----6---6-----------------------------------|
|----4---4-----4---4-----4---4-----4---4---4---------------------------------|
|--4---------4---------4---------4-------------------------------------------|

|----------------------------------------------------------------------------|
|----------------------------------------------------------------------------|
|-------4--------------------------------------------------------------------|
|-------------6-----7-----4-----6-----2------4-----6-2-----------------------|
|----------------------------------------------------------------------------|
|---0-0---0-0---0-0---0-0---0-0---0-0---0-0----0-0---------------------------|

Intro B x1

Electric (Distortion)
|----------------------------------------------------------------------------|
|----------------------------------------------------------------------------|
|-------------------999666-----------------444666------666444----------------|
|--4-4-4-4--777666---------4--4-4--777666---------0-0----------666777--------|
|--4-4-4-4-----------------4--4-4-----------------0-0------------------------|
|--4-4-4-4-----------------4--4-4-----------------0-0------------------------|

continued^
|----------------------------------------------------------------------------|
|----------------------------------------------------------------------------|
|----------------6b*---------------------------------------------------------|
|--2-2-2-2--7766-----446-6---------------------------------------------------|
|--2-2-2-2---------------6---------------------------------------------------|
|--2-2-2-2---------------6---------------------------------------------------|


Main Riff x1
|----------------------------------------------------------------------------|
|----------------------------------------------------------------------------|
|-------------------999666-----------------444666------666444----------------|
|--4-4-4-4--777666---------4--4-4--777666---------0-0----------666777--------|
|--4-4-4-4-----------------4--4-4-----------------0-0------------------------|
|--4-4-4-4-----------------4--4-4-----------------0-0------------------------|

continued^
|----------------------------------------------------------------------------|
|----------------------------------------------------------------------------|
|----------------------------------------------------------------------------|
|--2-2-2-2--7766--446--6-----------------------------------------------------|
|--2-2-2-2-------------6-----------------------------------------------------|
|--2-2-2-2-------------6-----------------------------------------------------|


Verse x8
|----------------------------------------------||----------------------------|
|----------------------------------------------||----------------------------|
|----------------------------------------------||----------------------------|
|----------------------------------------------||<-Go-fromthis-"2"-back-to--|
|----------------------------------------------||<-------the-startof--------|
|----4--4-6-4-4-4-6-4-4-4-6-4-4-4-6-4-4-4-6-4-2||<--------theverse.---------|


Prechorus x1
|----------------------------------------------------------------------------|
|----------------------------------------------------------------------------|
|----------------------------------------------------------------------------|
|--4-44----4-44----4----4-44----4-44----4----0~~~~----6-666777---------------|
|--4-44-00-4-44-00-4-00-4-44-00-4-44-00-4-00-0~~~~----6~~--------------------|
|--4-44-00-4-44-00-4-00-4-44-00-4-44-00-4-00-0~~~~-00-6~~--------------------|
PM      ..      ..   ..      ..      ..   ..       ..


Chorus x1
|----------------------------------------------------------------------------|
|----------------------------------------------------------------------------|
|-------------------999666-----------------444666------666444----------------|
|--4-4-4-4--777666---------4--4-4--777666---------0-0----------666777--------|
|--4-4-4-4-----------------4--4-4-----------------0-0------------------------|
|--4-4-4-4-----------------4--4-4-----------------0-0------------------------|

continued^
|----------------------------------------------------------------------------|
|----------------------------------------------------------------------------|
|----------------------------------------------------------------------------|
|--2-2-2-2--7766--446--6-----------------------------------------------------|
|--2-2-2-2-------------6-----------------------------------------------------|
|--2-2-2-2-------------6-----------------------------------------------------|

|----------------------------------------------------------------------------|
|----------------------------------------------------------------------------|
|-------------------999666-----------------444666------666444--999666--------|
|--4-4-4-4--777666---------4--4-4--777666---------0-0------------------------|
|--4-4-4-4-----------------4--4-4-----------------0-0------------------------|
|--4-4-4-4-----------------4--4-4-----------------0-0------------------------|

continued^
|----------------------------------------------------------------------------|
|----------------------------------------------------------------------------|
|----------------------------------------------------------------------------|
|--2-2-2-2--7766--446--6-----------------------------------------------------|
|--2-2-2-2-------------6-----------------------------------------------------|
|--2-2-2-2-------------6-----------------------------------------------------|


Verse x12

|----------------------------------------------||----------------------------|
|----------------------------------------------||----------------------------|
|----------------------------------------------||----------------------------|
|----------------------------------------------||<-Go-fromthis-"2"-back-to--|
|----------------------------------------------||<-------the-startof--------|
|----4--4-6-4-4-4-6-4-4-4-6-4-4-4-6-4-4-4-6-4-2||<--------theverse.---------|


Prechorus x1
|----------------------------------------------------------------------------|
|----------------------------------------------------------------------------|
|----------------------------------------------------------------------------|
|--4-44----4-44----4----4-44----4-44----4----0~~~~----6-446-6----------------|
|--4-44-00-4-44-00-4-00-4-44-00-4-44-00-4-00-0~~~~----6~~---6----------------|
|--4-44-00-4-44-00-4-00-4-44-00-4-44-00-4-00-0~~~~-00-6~~---6----------------|
PM      ..      ..   ..      ..      ..   ..       ..


Chorus x1
|----------------------------------------------------------------------------|
|----------------------------------------------------------------------------|
|-------------------999666-----------------444666------666444----------------|
|--4-4-4-4--777666---------4--4-4--777666---------0-0----------666777--------|
|--4-4-4-4-----------------4--4-4-----------------0-0------------------------|
|--4-4-4-4-----------------4--4-4-----------------0-0------------------------|

continued^
|----------------------------------------------------------------------------|
|----------------------------------------------------------------------------|
|----------------------------------------------------------------------------|
|--2-2-2-2--7766--446--6-----------------------------------------------------|
|--2-2-2-2-------------6-----------------------------------------------------|
|--2-2-2-2-------------6-----------------------------------------------------|

|----------------------------------------------------------------------------|
|----------------------------------------------------------------------------|
|-------------------999666-----------------444666------666444--999666--------|
|--4-4-4-4--777666---------4--4-4--777666---------0-0------------------------|
|--4-4-4-4-----------------4--4-4-----------------0-0------------------------|
|--4-4-4-4-----------------4--4-4-----------------0-0------------------------|

continued^
|----------------------------------------------------------------------------|
|----------------------------------------------------------------------------|
|----------------------------------------------------------------------------|
|--2-2-2-2--7766--446--6-4---------------------------------------------------|
|--2-2-2-2-------------6-4---------------------------------------------------|
|--2-2-2-2-------------6-4---------------------------------------------------|


Interlude A x1

Electric (Quiet with a light distortion/overdrive)
|----------------------------------------------------------------------------|
|----------------------------------------------------------------------------|
|-------11-----9------8------6-----------------------------------------------|
|-----9------7------6------4-------------------------------------------------|
|----------------------------------------------------------------------------|
|--9-------7------6------4---------------------------------------------------|

Interlude B x1

Electric (Distortion)
|----------------------------------------------------------------------------|
|----------------------------------------------------------------------------|
|----------------------------------------------------------------------------|
|--4-444--4-4-444-4-444--4-4-444--0-000--0-0-000-0-000--0-0-000--------------|
|--4-444--4-4-444-4-444--4-4-444--0-000--0-0-000-0-000--0-0-000--------------|
|--4-444--4-4-444-4-444--4-4-444--0-000--0-0-000-0-000--0-0-000--------------|
PM . ...  . . ... . ...  . . ...  . ...  . . ... . ...  . . ...

|----------------------------------------------------------------------------|
|----------------------------------------------------------------------------|
|----------------------------------------------------------------------------|
|--4-444--4-4-444-4-444--4-4-444--0-000--0-0-000-2--2-2-2-2-4--4-4-4-4--666--|
|--4-444--4-4-444-4-444--4-4-444--0-000--0-0-000-2--2-2-2-2-4--4-4-4-4--666--|
|--4-444--4-4-444-4-444--4-4-444--0-000--0-0-000-2--2-2-2-2-4--4-4-4-4--666--|
PM . ...  . . ... . ...  . . ...  . ...  . . ...

Outro x1

Electric (Distortion)
|----------------------------------------------------------------------------|
|----------------------------------------------------------------------------|
|-------------------999666-----------------444666------666444----------------|
|--4-4-4-4--777666---------4--4-4--777666---------0-0----------666777--------|
|--4-4-4-4-----------------4--4-4-----------------0-0------------------------|
|--4-4-4-4-----------------4--4-4-----------------0-0------------------------|

continued^
|----------------------------------------------------------------------------|
|----------------------------------------------------------------------------|
|----------------6b*---------------------------------------------------------|
|--2-2-2-2--7766-----446-6---------------------------------------------------|
|--2-2-2-2---------------6---------------------------------------------------|
|--2-2-2-2---------------6---------------------------------------------------|


|----------------------------------------------------------------------------|
|----------------------------------------------------------------------------|
|-------------------999666-----------------444666------666444----------------|
|--4-4-4-4--777666---------4--4-4--777666---------0-0----------666777--------|
|--4-4-4-4-----------------4--4-4-----------------0-0------------------------|
|--4-4-4-4-----------------4--4-4-----------------0-0------------------------|

continued^
|----------------------------------------------------------------------------|
|----------------------------------------------------------------------------|
|----------------------------------------------------------------------------|
|--2-2-2-2--7766--446--6-----------------------------------------------------|
|--2-2-2-2-------------6-----------------------------------------------------|
|--2-2-2-2-------------6-----------------------------------------------------|

|----------------------------------------------------------------------------|
|----------------------------------------------------------------------------|
|-------------------999666-----------------444666------666444--999666--------|
|--4-4-4-4--777666---------4--4-4--777666---------0-0------------------------|
|--4-4-4-4-----------------4--4-4-----------------0-0------------------------|
|--4-4-4-4-----------------4--4-4-----------------0-0------------------------|
continued^
|--------------||------------------------------------------------------------|
|--------------||------------------------------------------------------------|
|--------------||------------------------------------------------------------|
|--2--2-2/6-4-4||------------------------------------------------------------|
|--2--2-2/6-4-4||------------------------------------------------------------|
|--2--2-2/6-4-4||------------------------------------------------------------|


Share "Waiting On A War" by 36 Crazyfists


TOP 10 TABS

FRESH NEW TABS

ALL ARTISTS
artist wiki

mp3bear.com
TabSpace.com / contact us / privacy policy / tabspace toolbar
Copyright 2004 - 2016 TabSpace.com - All Rights Reserved.
song: waiting on a war guitar tabs by 36 crazyfists

0.004