:: Guitar & Bass Tabs Make Home Page
A B C D E F G H I J K L M N O P Q R S T U V W X Y Z #

  for    

On TABSPACE
Info About This Tab
Artist: Margot And The Nuclear So And Sos
Tab Type: Guitar
Rate This Tab!
Margot and the Nuclear So and So's
Waking Up and Walking Out
Standard Tuning


INTRO

e----------------------------------------------------1--3---|
b----1------------------1--1---3---1---3---1---0-----1--3---|
g-----------------------2----------------------------2--4---|
d----2-0h2-0h2-0h2-0h2--2-------------------------2--3--5---|
a--3-3-----------------------0---0---0---0---0----2--3--5---|
e-------------------------------------------------0--1--3---|

VERSE/ PART BETWEEN CHORUS AND NEXT VERSE (sings the oooh's and such....)

e--------------1---3-------------|
b--1---1-------1---3-------------|
g------2-------2---4-------------|
d--2---2---2---3---5-------------|
a--3-------2---3---5-------------|
e----------0---1---3-------------|

CHORUS

e--1---------------|
b--1---1---3-------|
g--2---------------|
d--3---2-----------|
a--3---3---2-------|
e--1-------3-------|


Share "Waking Up And Walking Out" by Margot And The Nuclear So And Sos


TOP 10 TABS

FRESH NEW TABS

ALL ARTISTS
artist wiki

mp3bear.com
song lyrics / contact us / privacy policy / tabspace toolbar
Copyright 2004 - 2014 TabSpace.com - All Rights Reserved.
song: waking up and walking out guitar tabs by margot and the nuclear so and sos

0.066