:: Guitar & Bass Tabs Make Home Page
A B C D E F G H I J K L M N O P Q R S T U V W X Y Z #

  for    

On TABSPACE
Info About This Tab
Artist: 30 Seconds To Mars
Tab Type: Guitar
Rate This Tab!
Eb:-----------------------------------------------------|
30 seconds to mars - Was it a dream?  

it sounds good to me..

Bb:-----------------------------------------------------|
Gb:-----------0-----------------------------------------|
Db:------4-------4-------4---------7---------7----------|
Ab:--2-2---2---------2-------5--5------5--5------0------|
Eb:-----------------------------------------------------|

Eb:----------------------------------------------------------|
Bb:----------------------------------------------------------|
Gb:-----------0----------------------------------------------|
Db:------4-------4-------4---------7---------------9---------|
Ab:--2-2---2---------2-------5--5------5----7--7--------0----|
Eb:----------------------------------------------------------|

Eb:-----------------------------------------------------------------------------------------------|
Bb:-----------------------------------------------------------------------------------------------|
Gb:-----------0-----------------------------------------------------------------------------------|
Db:------4-------4-------4---------7------------7--------------7---------7----------11---------11-|
Ab:--2-2---2---------2-------5--5------5---5--------5---0--0------0--0--------9--9-------9--9-----|
Eb:-----------------------------------------------------------------------------------------------|



Share "Was It A Dream Intro" by 30 Seconds To Mars


TOP 10 TABS

FRESH NEW TABS

ALL ARTISTS
artist wiki

mp3bear.com
song lyrics / contact us / privacy policy / tabspace toolbar
Copyright 2004 - 2014 TabSpace.com - All Rights Reserved.
song: was it a dream intro guitar tabs by 30 seconds to mars

0.021