:: Guitar & Bass Tabs Make Home Page
A B C D E F G H I J K L M N O P Q R S T U V W X Y Z #

  for    

On TABSPACE
Info About This Tab
Artist: Evanescence
Tab Type: Bass
Difficulty: novice
Rate This Tab!
INTRO:
Gb|-------------------------------------------|
Db|-------------------------------------------|
Ab|-------------------------------------------|x2
Db|-2-2-2~--2-2-2-3-0~--2-3-2-2-2--2-3-2-2-2--|
pm.. .     . .

VERSE:
Gb|-------------------------------------------|
Db|-------------------------------------------|
Ab|-------------------------------------------|x3
Db|---------------------2-3-2-2-2--2-3-2-2-2--|

Gb|-------------------------------------------|
Db|-------------------------------------------|
Ab|-------------------------------------------|x2
Db|-2-2-2~--2-2-2-3-0~--2-3-2-2-2--2-3-2-2-2--|
pm.. . .

PRECHORUS:
Gb|-----------------------|
Db|-----------------------|
Ab|-7--5----3--0---7--5---|
Db|-----------------------|

CHORUS:
Gb|-----------------------------------------------------------|
Db|-----------------------------------------------------------|
Ab|-----------------------------------------------------------|
Db|-7-7-7-7-7-7-7-3-3-3-3-3-3-3-7-7-7-7-7-7-7-3-3-3-3-3-3-3-3-|

Gb|-----------------------------------------------------------|
Db|-----------------------------------------------------------|
Ab|-----------------------------------------------------------|
Db|-7-7-7-7-7-7-7-3-3-3-3-3-3-3-0-0-0-0-0-0-0-2-2-2-2-2-2-2-2-|

INTERLUDE:
Gb|-----------------------------------------------------------|
Db|-----------------------------------------------------------|
Ab|-----------------------------------------------------------|x2
Db|--2-2-2-3---0-2--3---0-2-3-2-0--2-2-2-3---0-2--3---0-2--3--|

VERSE:
Gb|-------------------------------------------|
Db|-------------------------------------------|
Ab|-------------------------------------------|x3
Db|---------------------2-3-2-2-2--2-3-2-2-2--|

Gb|-------------------------------------------|
Db|-------------------------------------------|
Ab|-------------------------------------------|x2
Db|-2-2-2~--2-2-2-3-0~--2-3-2-2-2--2-3-2-2-2--|
pm.. . .

PRECHORUS:
Gb|-----------------------|
Db|-----------------------|
Ab|-7--5----3--0---7--5---|
Db|-----------------------|

CHORUS:
Gb|-----------------------------------------------------------|
Db|-----------------------------------------------------------|
Ab|-----------------------------------------------------------|
Db|-7-7-7-7-7-7-7-3-3-3-3-3-3-3-7-7-7-7-7-7-7-3-3-3-3-3-3-3-3-|

Gb|-----------------------------------------------------------|
Db|-----------------------------------------------------------|
Ab|-----------------------------------------------------------|
Db|-7-7-7-7-7-7-7-3-3-3-3-3-3-3-0-0-0-0-0-0-0-2-2-2-2-2-2-2-2-|

INTERLUDE:
Gb|-----------------------------------------------------------|
Db|-----------------------------------------------------------|
Ab|-----------------------------------------------------------|x4
Db|--2-2-2-3---0-2--3---0-2-3-2-0--2-2-2-3---0-2--3---0-2--3--|

CHORUS: TACIT Then

CHORUS:
Gb|-----------------------------------------------------------|
Db|-----------------------------------------------------------|
Ab|-----------------------------------------------------------|
Db|-7-7-7-7-7-7-7-3-3-3-3-3-3-3-7-7-7-7-7-7-7-3-3-3-3-3-3-3-3-|

Gb|-----------------------------------------------------------|
Db|-----------------------------------------------------------|
Ab|-----------------------------------------------------------|
Db|-7-7-7-7-7-7-7-3-3-3-3-3-3-3-0-0-0-0-0-0-0-2-2-2-2-2-2-2-2-|


Share "Weight Of The World" by Evanescence


TOP 10 TABS

FRESH NEW TABS

ALL ARTISTS
artist wiki

mp3bear.com
song lyrics / contact us / privacy policy / tabspace toolbar
Copyright 2004 - 2014 TabSpace.com - All Rights Reserved.
song: weight of the world bass tabs by evanescence

0.018