:: Guitar & Bass Tabs Make Home Page
A B C D E F G H I J K L M N O P Q R S T U V W X Y Z #

  for    

On TABSPACE
Info About This Tab
Artist: 30 Seconds To Mars
Tab Type: Bass
Rate This Tab!
Band- 30 Seconds To Mars
Song- Welcome To The Universe

Intro
Gb|--------------|X2|----------------------|
Db|--------------|X2|----------------------|
Ab|----3--5--1-0-|X2|----3----1-0-----3----|
Db|-3------------|X2|-3-----0------3-----0-|

Verse x3
Gb|-------------------|
Db|-------------------|
Ab|-------------------|
Db|-xxxx-77-xxxxxx7^7-|

Prechorus x2
Gb|-----------|--------------|
Db|-----------|--------------|
Ab|---5-6-7-8-|-----5-6-7-8^-|
Db|-5~-5-5-5--|-5-55-5-5-5---|

Chorus
Gb|-------------------------|
Db|-------------------------|
Ab|----3----1-0-----3-3/5-0-|
Db|-3-----0------3----------|

Verse x3
Gb|-------------------|
Db|-------------------|
Ab|-------------------|
Db|-xxxx-77-xxxxxx7^7-|
(pause)
Verse x3
Gb|-------------------|
Db|-------------------|
Ab|-------------------|
Db|-xxxx-77-xxxxxx7^7-|
(pause)
Prechorus 
Gb|-----------|--------------|
Db|-----------|--------------|
Ab|---5-6-7-8-|-----5-6-7-8^-|
Db|\5~-5-5-5--|-5-55-5-5-5---|

Chorus x2
Gb|-------------------------|
Db|-------------------------|
Ab|----3----1-0-----3-3/5-0-|
Db|-3-----0------3----------|

Outro x2
Gb|--------------|
Db|--------------|
Ab|----3--5--1-0-|
Db|-3------------|



Share "Welcome To The Universe" by 30 Seconds To Mars


TOP 10 TABS

FRESH NEW TABS

ALL ARTISTS
artist wiki

mp3bear.com
song lyrics / contact us / privacy policy / tabspace toolbar
Copyright 2004 - 2014 TabSpace.com - All Rights Reserved.
song: welcome to the universe bass tabs by 30 seconds to mars

0.034