:: Guitar & Bass Tabs Make Home Page
A B C D E F G H I J K L M N O P Q R S T U V W X Y Z #

  for    

On TABSPACE
Info About This Tab
Artist: Tokio Hotel
Tab Type: Guitar
Rate This Tab!
This song is by TH, they rock (:


Intro:

e|-----------------------------------------------------------------|
B|-----------------------------------------------------------------|
G|-----------------------------------------------------------------|     
D|------------------8-8-8-7-7-7------------------------------------|      
A|-6-6-6-5-5-5------------------8-8-5-5-5-5-5-5-5-5-7-7-7-7-7-7-7-7|
E|-------------6-6-------------------------------------------------|


Verse:

Keiner mehr da der mich wirklich kennt
e|-----------------------------------------------------------------|
B|-----------------------------------------------------------------|
G|-----------------------------------------------------------------|     
D|------------------8-8-8-7-7-7------------------------------------|      
A|-6-6-6-5-5-5------------------8-8-5-5-5-5-5-5-5-5-7-7-7-7-7-7-7-7|
E|-------------6-6-------------------------------------------------|

Meine welt bricht grad' zusammen
Und es läuft'n happy-end
e|-----------------------------------------------------------------|
B|-----------------------------------------------------------------|
G|-----------------------------------------------------------------|     
D|------------------8-8-8-7-7-7------------------------------------|      
A|-6-6-6-5-5-5------------------8-8-5-5-5-5-5-5-5-5-7-7-7-7-7-7-7-7|
E|-------------6-6-------------------------------------------------|

Um dich weinen soll ich nicht
Ich weiß unsterblich sind wir nicht
e|---------------------------------|
B|---------------------------------|
G|---------------------------------|    x2   
D|---------------------------------|      
A|-5-5-5-5-6-6-6-6-1-1-1-1-3-3-3-3-|
E|---------------------------------|

Aber du hast mal gesagt
e|-------------|
B|-------------|
G|-------------|     
D|-------------|      
A|-5-4-5-4-5---|
E|-------------|


Chorus:

Wenn nichts mehr geht
Werd' ich ein engel sein - Für dich allein

Und dir in jeder dunklen nacht erschein'
e|-3--3-3--5--5-5--6--6-6--8---8--8-----|
B|-3--3-3--6--6-6--6--6-6--8---8--8-----|
G|-3--3-3--7--7-7--7--7-7--9---9--9-----|    x2 
D|-5--5-5--7--7-7--8--8-8--10--10-10----|      
A|-5--5-5--5--5-5--8--8-8--10--10-10----|
E|-3--3-3--5--5-5--6--6-6--8---8--8-----|


Und dann fliegen wir weit weg von hier
e|-5--5--3--3--5--5--6--6-|
B|-6--6--3--3--6--6--6--6-|
G|-7--7--3--3--7--7--8--8-|     
D|-7--7--5--5--7--7--8--8-|      
A|-5--5--5--5--5--5--6--6-|
E|-5--5--3--3--5--5--6--6-|

Wir werden uns nie mehr verlier'n
e|-6--6--6--6--6--6--5--5--5--5--5--5-|
B|-6--6--6--6--6--6--6--6--6--6--6--6-|
G|-8--8--8--8--8--8--7--7--7--7--7--7-|
D|-8--8--8--8--8--8--7--7--7--7--7--7-|
A|-6--6--6--6--6--6--5--5--5--5--5--5-|
E|-6--6--6--6--6--6--5--5--5--5--5--5-|



Verse 

Chorus

(Wenn nichte mehr geht)
e|---------------------------------|
B|---------------------------------|
G|12\14-14-14-14-14-14-------------|    x2   
D|---------------------------------|      
A|---------------------------------|
E|---------------------------------|

Bridge:

Denk nur an mich und du siehst den engel der neben fliegt

e|-----------------------------------------------------------------|
B|-----------------------------------------------------------------|
G|-----------------------------------------------------------------|     
D|------------------8-8-8-7-7-7------------------------------------|      
A|-6-6-6-5-5-5------------------8-8-5-5-5-5-5-5-5-5-7-7-7-7-7-7-7-7|
E|-------------6-6-------------------------------------------------|

Denk nur an mich und du siehst den engel der neben dir fliegt
e|-----------------------------------------------------------------|
B|-----------------------------------------------------------------|
G|-----------------------------------------------------------------|     
D|------------------8-8-8-7-7-7------------------------------------|      
A|-6-6-6-5-5-5------------------8-8-5-5-5-5-5-5-5-5-7-7-7-7-7-7-7-7|
E|-------------6-6-------------------------------------------------|

den engel der neben dir fliegt
e|--------------------------|
B|--------------------------|
G|--------------------------|     
D|------------------8-7-8-5-|      
A|-6-6-6-5-5-5--------------|
E|-------------6-6----------|

Chorus



thats it.. sorry if there are mistakes



Dana


Share "Wenn Nicht Mehr Geht" by Tokio Hotel


TOP 10 TABS

FRESH NEW TABS

ALL ARTISTS
artist wiki

mp3bear.com
song lyrics / contact us / privacy policy / tabspace toolbar
Copyright © 2004 - 2014 TabSpace.com - All Rights Reserved.
song: wenn nicht mehr geht guitar tabs by tokio hotel

0.013