:: Guitar & Bass Tabs Make Home Page
A B C D E F G H I J K L M N O P Q R S T U V W X Y Z #

  for    

On TABSPACE
Info About This Tab
Artist: Faber Drive
Tab Type: Guitar
Difficulty: novice
Rate This Tab!
-------------------------------------------------------------------------------
			     SONG NAME - Band Name
-------------------------------------------------------------------------------
Tabbed by:Dylan Ribble
Email:dylanribble009@hotmail.com

Tuning:standard

Alrighty, here is my version of when i'm with you, it's an amazing song and i wanted to
y'all how to play it, the begginning intro solo thingy is accurate enough, so if u play
with it u should be able to get it bang on. other than that it follows the same chord 
over and over lmfao.


Inro/Chorus

e|--3----------3----------3-----------3-------------------------------------|
B|--3----------3----------3-----------3-------------------------------------|
G|--0----------2----------0-----------0-------------------------------------|
D|--0----------0----------2-----------2-------------------------------------|
A|--2----------0----------2-----------3-------------------------------------|
E|--3----------2----------x-----------x-------------------------------------|

Verse 1/2
e|---3---------3----------3---------------------------------------------------|
B|---3---------3----------3---------------------------------------------------|
G|---0---------0----------2---------------------------------------------------|
D|---0---------2--------------------------------------------------------------|
A|---2---------2--------------------------------------------------------------|
E|---3------------------------------------------------------------------------|
pre-chorus
e|----0--------3----------3----------------------------------------------------|
B|----2--------3----------3----------------------------------------------------|
G|----2--------0----------2----------------------------------------------------|
D|----2--------2---------------------------------------------------------------|
A|-------------3---------------------------------------------------------------|
E|-----------------------------------------------------------------------------|

bridge
e|--3---------3-----------3----------------------------------------------------|
B|--3---------3-----------3----------------------------------------------------|
G|--0---------2-----------0----------------------------------------------------|
D|--2---------------------2----------------------------------------------------|
A|--2---------------------3----------------------------------------------------|
E|-----------------------------------------------------------------------------|

intro solo thingy
e|-----------------------------------------------------------------------------|
B|-----------------------------------------------------------------------------|
G|--7------7----------2----2/4--2-0-------7------7----5-----2--2/4--2-0--------|
D|-5------5-----7----5-------------------5------5----------5-------------------|
A|-----------------------------------------------------------------------------|
E|-----------------------------------------------------------------------------|

| /  slide up
| \  slide down
| h  hammer-on
| p  pull-off
| ~  vibrato
| +  harmonic
| x  Mute note


Share "When Im With You" by Faber Drive


TOP 10 TABS

FRESH NEW TABS

ALL ARTISTS
artist wiki

mp3bear.com
song lyrics / contact us / privacy policy / tabspace toolbar
Copyright 2004 - 2014 TabSpace.com - All Rights Reserved.
song: when im with you guitar tabs by faber drive

0.015