:: Guitar & Bass Tabs Make Home Page
A B C D E F G H I J K L M N O P Q R S T U V W X Y Z #

  for    

On TABSPACE
Info About This Tab
Artist: Evanescence
Tab Type: Bass
Rate This Tab!
Band- Evanescence
Song- Where Will You Go

Tuning: Drop D (D A D G)

this is an updating...
cuz my brother will boyd now play 3 different basses...
a 4 strings in standard
a 5 strings in standard
a 4 strings in drop D
...
excuse me and this is now 100% correct

intro-wait 8 measures, then-

G|0-0-------------0-0-------------1-1-------------------------1-1-||
D|----1-1-0-0-1-1-----1-1-0-0-1-1-----1-1-0-0-1-1-3-3-1-1-0-0-----||
A|----------------------------------------------------------------||
D|----------------------------------------------------------------||

G|0-0-------------0-0-------------1-1-----------------------------||
D|----1-1-0-0-1-1-----1-1-0-0-1-1-----1-1-0-0-1-1-3-3-1-1-0-0-----||
A|------------------------------------------------------------3-3-||
D|----------------------------------------------------------------||

verses (no bass) wait 16 measures

1st chorus
G|--------------||
D|--------------||
A|--------3~~~~-||
D|3~~-0~~-------||

G|--------------||
D|--------------||
A|--------------||
D|3~~-6~~-5~~~--||

G|--------||
D|--------||
A|--------||
D|3~~-0~~-||

G|------||
D|------||
A|----3-||
D|3-1---||

intro-repeat-

verses (no bass) wait 16 measures

2nd chorus
G|--------------||
D|--------------||
A|--------3~~~~-||
D|3~~-0~~-------||

G|--------------||
D|--------------||
A|--------------||
D|3~~-6~~-5~~~--||

G|--------------||
D|--------------||
A|--------3~~~~-||
D|3~~-0~~-------||x2

G|--------------||
D|--------------||
A|--------------||
D|3~~-6~~-5~~~--||

G|--------||
D|--------||
A|--------||
D|3~~-0~~-||

G|----------||
D|----------||
A|----3~~~~-||
D|3-1-------||

break-wait 14 measures

last chorus
G|--------------||
D|--------------||
A|2~~-1~~-------||
D|--------4~~~~-||

G|--------------||
D|--------------||
A|2~~-5~~-4~~~~-||
D|--------------||

G|--------------||
D|--------------||
A|2~~-1~~-------||
D|--------4~~~~-||x2

G|--------------||
D|--------------||
A|2~~-5~~-4~~~~-||
D|--------------||

G|------------||
D|------------||
A|2~~-1~~-2~~-||
D|------------||

G|------------||
D|------------||
A|----2~~-1~~-||
D|4~~---------||

G|--------||
D|--------||
A|2-2-0---||
D|------4-||

break-wait 4 measures

outro
G|6-6-------------6-6-------------7-7-------------4-4---------7-7-||
D|----7-7-6-6-7-7-----7-7-6-6-7-7-----7-7-6-6-7-7-----7-7-6-6-----||
A|----------------------------------------------------------------||
D|----------------------------------------------------------------||

G|6-6-------------6-6-------------7-7-------------4-4-------------||
D|----7-7-6-6-7-7-----7-7-6-6-7-7-----7-7-6-6-7-7-----7-7-6-6-4-4-||
A|----------------------------------------------------------------||
D|----------------------------------------------------------------||

play the outro until the end


Share "Where Will You Go" by Evanescence


TOP 10 TABS

FRESH NEW TABS

ALL ARTISTS
artist wiki

mp3bear.com
song lyrics / contact us / privacy policy / tabspace toolbar
Copyright 2004 - 2014 TabSpace.com - All Rights Reserved.
song: where will you go bass tabs by evanescence

0.027