:: Guitar & Bass Tabs Make Home Page
A B C D E F G H I J K L M N O P Q R S T U V W X Y Z #

  for    

On TABSPACE
Info About This Tab
Artist: Jaya The Cat
Tab Type: Bass
Difficulty: intermediate
Rate This Tab!
Bass tab of the song: Wilderness.
It's a weird intro, but a great song.

The parts between '' are the vocals.
I don't really know the text since there are no lyrics of this song.

(Standard Tuning for this)


''Check, Test, one two, one two, allright''

Intro

''Now the 20th is about religion''

   |start playing this when he sings Religion
   v

G|----------------------------------------------------------------------------|
D|----------------------------------------------------------------------------|
A|-0-0-0-0-----0-0-0-0-----0-0-0-0-----0-0-0-0--------------------------------|
E|---------3-3---------3-3---------3-3----------------------------------------|


Verse

G|----------------------------------------------------------------------------|
D|----------------------------------------------------------------------------|
A|-0-0-3-3-0-0-3-0-----------------0-0-3-3-0-0-3-0----------------------------|
E|-----------------3-3-3-3-3-3-3-3-----------------3-3-3-3-3-3-3-3------------|

G|----------------------------------------------------------------------------|
D|-----------------------------------------------------0----------------------|
A|-0-0-3-3-0-0-3-0-----------------0-0-3-3-0-0-3-0-------0-3-0----------------|
E|-----------------3-3-3-3-3-3-3-3-----------------3-3---------3-3------------|


Chorus (Play this 3 times)

''Somewhere around, beyond this wilderness.''
''There's the salvation i know.''
''Beyond the politics and troubles of this world.''
G|----------------------------------------------------------------------------|
D|----------------------2-0---------------------------------------------------|
A|-3-3-3-3-3--3-------------3-0-0-0-0-0--0------------------------------------|
E|--------------3-3-3-3--------------------1-3--------------------------------|

''There's the salvation i know.''
G|---------------|
D|---------------|
A|-3---0---------|
E|---3-----------|


*there's this little piece in the song where he sings:

''I like Punk Rock, I like Raggae, and if you wanna talk about heavy metal that'll be 
the 70's not the 80's''

Try to time this at that text:

G|---------------|
D|---------------|
A|-0--0--0-------|
E|---------3-3-3-|

Then he continues with the verse.


Outro

G|---------------|
D|---------------|
A|-3---0---------|
E|---3-----------|


Share "Wilderness" by Jaya The Cat


TOP 10 TABS

FRESH NEW TABS

ALL ARTISTS
artist wiki

mp3bear.com
TabSpace.com / contact us / privacy policy / tabspace toolbar
Copyright 2004 - 2016 TabSpace.com - All Rights Reserved.
song: wilderness bass tabs by jaya the cat

0.003