:: Guitar & Bass Tabs Make Home Page
A B C D E F G H I J K L M N O P Q R S T U V W X Y Z #

  for    

On TABSPACE
Info About This Tab
Artist: Tokio Hotel
Tab Type: Guitar
Difficulty: intermediate
Rate This Tab!
-------------------------------------------------------
             TOKIO HOTEL - WO SIND EURE HÄNDE
-------------------------------------------------------

INTRO
|------------------------------|
|------------------------------|
|------------------------------|
|-7-7-7-10-10-10-3-3-3-7-7-7-7-|
|-7-7-7-10-10-10-3-3-3-7-7-7-7-|
|-5-5-5-8--8--8--1-1-1-5-5-5-5-|

|------------------------------|
|------------------------------|
|------------------------------|
|-7-7-7-10-10-10-3-3-7-5-------|
|-7-7-7-10-10-10-3-3-7-5-------|
|-5-5-5-8--8--8--1-1-5-3-------| 
           
            -X2-
           

1st VERSE
|------------------------------|
|------------------------------|
|------------------------------|
|-7-7-7-10-10-10-3-3-3-7-7-7-7-|
|-7-7-7-10-10-10-3-3-3-7-7-7-7-|
|-5-5-5-8--8--8--1-1-1-5-5-5-5-|

|------------------------------|
|------------------------------|
|------------------------------|
|-7-7-7-10-10-10-3-3-7-5-------|
|-7-7-7-10-10-10-3-3-7-5-------|
|-5-5-5-8--8--8--1-1-5-3-------| 
           
           -X3-
           

|------------------------------|
|------------------------------|
|------------------------------|
|-7-7-7-10-10-10-3-3-3-7-7-7-7-|
|-7-7-7-10-10-10-3-3-3-7-7-7-7-|
|-5-5-5-8--8--8--1-1-1-5-5-5-5-|

|------------------------------|
|------------------------------|
|------------------------------|
|-7-7-7-10-10-10-3-3-3-3-3-3-3-|
|-7-7-7-10-10-10-3-3-3-3-3-3-3-|
|-5-5-5-8--8--8--1-1-1-1-1-1-1-|
                 . . .


PRE-REFRAIN
|------------------------------|
|------------------------------|
|-7-7-7-9-9-9------------------|
|-7-7-7-9-9-9-5-5-5-7-7-7------|
|-5-5-5-7-7-7-3-3-5-7-7-7------|
|-------------3-3-3-5-5-5------|

|------------------------------|
|------------------------------|
|-7-7-7-9-9-9------------------|
|-7-7-7-9-9-9-5-5-5-5-5-5-5-5--|
|-5-5-5-7-7-7-3-3-5-5-5-5-5-5--|
|-------------3-3-3-3-3-3-3-3--|
              . . .


REFRAIN
|(XX)--------------------------|
|(XX)--------------------------|
|(XX)-9-9-9-5-5-5-9-9-9--------|
|(XX)-9-9-9-5-5-5-9-9-9-5-5-5-5|
|(XX)-7-7-7-3-3-3-7-7-7-5-5-5-5|
|(XX)-------------------3-3-3-3|
 
         -2X-


2nd VERSE
|------------------------------|
|------------------------------|
|------------------------------|
|-7-7-7-10-10-10-3-3-3-7-7-7-7-|
|-7-7-7-10-10-10-3-3-3-7-7-7-7-|
|-5-5-5-8--8--8--1-1-1-5-5-5-5-|

|------------------------------|
|------------------------------|
|------------------------------|
|-7-7-7-10-10-10-3-3-7-5-------|
|-7-7-7-10-10-10-3-3-7-5-------|
|-5-5-5-8--8--8--1-1-5-3-------|
     
        -2X-

|------------------------------|
|------------------------------|
|------------------------------|
|-7-7-7-10-10-10-3-3-3-7-7-7-7-|
|-7-7-7-10-10-10-3-3-3-7-7-7-7-|
|-5-5-5-8--8--8--1-1-1-5-5-5-5-|

|------------------------------|
|------------------------------|
|------------------------------|
|-7-7-7-10-10-10-3-3-3-3-3-3-3-|
|-7-7-7-10-10-10-3-3-3-3-3-3-3-|
|-5-5-5-8--8--8--1-1-1-1-1-1-1-|
                 . . .



PRE REFRAIN
|------------------------------|
|------------------------------|
|-7-7-7-9-9-9------------------|
|-7-7-7-9-9-9-5-5-5-7-7-7------|
|-5-5-5-7-7-7-3-3-5-7-7-7------|
|-------------3-3-3-5-5-5------|

|------------------------------|
|------------------------------|
|-7-7-7-9-9-9------------------|
|-7-7-7-9-9-9-5-5-5-5-5-5-5-5--|
|-5-5-5-7-7-7-3-3-5-5-5-5-5-5--|
|-------------3-3-3-3-3-3-3-3--|
              . . .


REFRAIN
|(XX)--------------------------|
|(XX)--------------------------|
|(XX)-9-9-9-5-5-5-9-9-9--------|
|(XX)-9-9-9-5-5-5-9-9-9-5-5-5-5|
|(XX)-7-7-7-3-3-3-7-7-7-5-5-5-5|
|(XX)-------------------3-3-3-3|
 
      -2X-



|------------------------------|
|------------------------------|
|-9-9-9-------9-9-9------------|
|-9-9-9-5-5-5-9-9-9-5-5-5------|
|-7-7-7-5-5-5-7-7-7-5-5-5------|
|-------3-3-3-------3-3-3------|



|------------------------------|
|------------------------------|
|------------------------------|
|-3-3-3-10-10-10-5-5-5-7-7-7---|
|-3-3-3-10-10-10-5-5-5-7-7-7---|
|-1-1-1-8 -8 -8 -3-3-3-5-5-5---|
  . . . .  .  .  . . . . . . .

      -2X-

|------------------------------|
|------------------------------|
|------------------------------|
|-3-----10-------5-----7-7-7---|
|-3-----10-------5-----7-7-7---|
|-1-----8 -------3-----5-5-5---|

     -4X-

|---------------|
|---------------|
|---------------|
|-3-3-3-3-3-3-3-|
|-3-3-3-3-3-3-3-|
|-1-1-1-1-1-1-1-|
  . . .


REFRAIN
|(XX)--------------------------|
|(XX)--------------------------|
|(XX)-9-9-9-5-5-5-9-9-9--------|
|(XX)-9-9-9-5-5-5-9-9-9-5-5-5-5|
|(XX)-7-7-7-3-3-3-7-7-7-5-5-5-5|
|(XX)-------------------3-3-3-3|


|------------------------------|
|------------------------------|
|-9-9-9-------9-9-9------------|
|-9-9-9-5-5-5-9-9-9-5-5-5------|
|-7-7-7-5-5-5-7-7-7-5-5-5------|
|-------3-3-3-------3-3-3------|

      -3X-

|------------------------------|
|------------------------------|
|------------------------------|
|-7-7-7-10-10-10-3-3-3-7-7-7-7-|
|-7-7-7-10-10-10-3-3-3-7-7-7-7-|
|-5-5-5-8--8--8--1-1-1-5-5-5-5-|

|------------------------------|
|------------------------------|
|------------------------------|
|-7-7-7-10-10-10-3-3-7-5-------|
|-7-7-7-10-10-10-3-3-7-5-------|
|-5-5-5-8--8--8--1-1-5-3-------| 

      -2X-

HOPE YOU LIKE IT!


Share "Wo Sind Eure Hnde" by Tokio Hotel


TOP 10 TABS

FRESH NEW TABS

ALL ARTISTS
artist wiki

mp3bear.com
song lyrics / contact us / privacy policy / tabspace toolbar
Copyright © 2004 - 2014 TabSpace.com - All Rights Reserved.
song: wo sind eure hnde guitar tabs by tokio hotel

0.008