:: Guitar & Bass Tabs Make Home Page
A B C D E F G H I J K L M N O P Q R S T U V W X Y Z #

  for    

On TABSPACE
Info About This Tab
Artist: Neneh Cherry
Tab Type: Bass
Difficulty: novice
Rate This Tab!
The intro is on the contrabss, but you can play on the e-bass:

Intro:

G----------------------------------------------------------------------------|
D----------------------------------------------------------------------------|
A----6----5----4----3----6----5----4----5----6----5----4---------6-----------|
E----------------------------------------------------------4--6------2----4--|

Vers:

G----------------------------------------------------------------------------|
D----------------------------------------------------------------------------|
A--6----5----4----3----6----5----4----5----6----5----4----3----6----5----4---|
E----------------------------------------------------------------------------|

G----------------------------------------------------------------------------|
D----------------------------------------------------------------------------|
A-5--------------------------------------------------------------------------|
E----------------------------------------------------------------------------|

_____________________________________________________________________________
1. 2.
G----------------------------------------------------------------------------|
D----------------------------------------------------------------------------|
A----------6----6--------------6----6--------------6----6--------------------|
E4----4--------------4----4--------------4----4--------------6----6----------|

_____________________________________________________________________________

G----------------------------------------------------------------------------|
D----------------------------------------------------------------------------|
A----------------------------------------------------------------------------|
E6--6--6-6-6-6---------------------------------------------------------------|

3x vers
_____________________________________________________________________________
3. GUITARESOLO
G-----------------------------------------------------------------------------|
D-----------------------------------------------------------------------------|
A----------6----6-----------------6-6-----------6----6------------------------|
E4----4--------------4----4----3------4----4--------------4----4----3---6---2-|
_____________________________________________________________________________

G----------------------------------------------------------------------------|
D----------------------------------------------------------------------------|
A------------6----6----------------------------------------------------------|
E--4----4--------------6----6----6--6--6-6-6-6-------------------------------|

Outro:

G----------------------------------------------------------------------------|
D----------------------------------------------------------------------------|
A6----5----4----3----6----5----4----5----------------------------------------|
E----------------------------------------------------------------------------|

Play the outro so many times, to the end

SUCCESSION:

Intro
Vers 1. + 2.
Vers 3. / Guitaresolo

have fun, and when you have some questions, you can ask me on my e-mail..:
melina.1994@hotmail.com


Share "Woman" by Neneh Cherry


TOP 10 TABS

FRESH NEW TABS

ALL ARTISTS
artist wiki

mp3bear.com
TabSpace.com / contact us / privacy policy / tabspace toolbar
Copyright 2004 - 2016 TabSpace.com - All Rights Reserved.
song: woman bass tabs by neneh cherry

0.003