:: Guitar & Bass Tabs Make Home Page
A B C D E F G H I J K L M N O P Q R S T U V W X Y Z #

  for    

On TABSPACE
Info About This Tab
Artist: Tokio Hotel
Tab Type: Guitar
Difficulty: novice
Rate This Tab!
-----------------------------------------------------------------------------
             World Behind My Wall(Acoustic) - Tokio Hotel
-----------------------------------------------------------------------------
Tabbed by: xonedarkflamex
Email: violaplayr4life@yahoo.com

This is my first tab, so I hope it turned out alright. =]


Tuning: Standard

Verse 1
|------------------------------------------------------------------|
|------------------------------------------------------------------|
|--13--13--13--13--13--13--13--13--12--12--12--12--12--12--12--12--|
|--13--13--13--13--13--13--13--13--13--13--13--13--13--13--13--13--|
|--11--11--11--11--11--11--11--11--11--11--11--11--11--11--11--11--|
|--11--11--11--11--11--11--11--11--11--11--11--11--11--11--11--11--| x3

|--------------------------------------------------|
|--------------------------------------------------|
|--9--9--9--9--9--9--9--9--8--8--8--8--8--8--8--8--|
|--9--9--9--9--9--9--9--9--9--9--9--9--9--9--9--9--|
|--7--7--7--7--7--7--7--7--7--7--7--7--7--7--7--7--|
|--7--7--7--7--7--7--7--7--7--7--7--7--7--7--7--7--|

|------------------------------------------------------------------|
|----------------------------------------------11--11--11--11--11--|
|--13--13--13--13--13--13--13--13--12--12--12--12--12--12--12--12--|
|--13--13--13--13--13--13--13--13--13--13--13--13--13--13--13--13--|
|--11--11--11--11--11--11--11--11--11--11--11--11--11--11--11--11--|
|--11--11--11--11--11--11--11--11--11--11--11--11--11--11--11--11--|


Verse 2
|------------------------------------------------------------------|
|------------------------------------------------------------------|
|--13--13--13--13--13--13--13--13--12--12--12--12--12--12--12--12--|
|--13--13--13--13--13--13--13--13--13--13--13--13--13--13--13--13--|
|--11--11--11--11--11--11--11--11--11--11--11--11--11--11--11--11--|
|--11--11--11--11--11--11--11--11--11--11--11--11--11--11--11--11--| x2

|--------------------------------------------------|
|--------------------------------------------------|
|--9--9--9--9--9--9--9--9--8--8--8--8--8--8--8--8--|
|--9--9--9--9--9--9--9--9--9--9--9--9--9--9--9--9--|
|--7--7--7--7--7--7--7--7--7--7--7--7--7--7--7--7--|
|--7--7--7--7--7--7--7--7--7--7--7--7--7--7--7--7--|

|------------------------------------------------------------------|
|------------------------------------------------------------------|
|--13--13--13--13--13--13--13--13--12--12--12--12--12--12--12--12--|
|--13--13--13--13--13--13--13--13--13--13--13--13--13--13--13--13--|
|--11--11--11--11--11--11--11--11--11--11--11--11--11--11--11--11--|
|--11--11--11--11--11--11--11--11--11--11--11--11--11--11--11--11--|


Chorus         
|--------------------------------------------------|
|--------------------4--4--------------------------|
|-----------5--5--5--5--5--5--5--5--5--5--5--5--5--|
|--6--6--6--6--6--6--6--6--6--6--6--6--6--6--6--6--|
|--6--6--6--6--6--6--6--6--6--6--6--6--6--6--6--6--|
|--4--4--4--4--4--4--4--4--4--4--4--4--4--4--4--4--|

|--------------------1-1-----------------------------|
|--------------------1-1-----------------------------|
|--1--1--1--1--1--1--1-1--1--1--1--1--1--1--1--1--1--|
|--3--3--3--3--3--3--3-3--3--3--3--3--3--3--3--3--3--|
|--3--3--3--3--3--3--3-3--3--3--3--3--3--3--3--3--3--|
|--1--1--1--1--1--1--1-1--1--1--1--1--1--1--1--1--1--|

|---------------------------------------------------------------------|
|------------------------------9--9-----------------------------------|
|--10--10--10--10--10--10--10--10-10--10--10--10--10--10--10--10--10--|
|--11--11--11--11--11--11--11--11-11--11--11--11--11--11--11--11--11--|
|--11--11--11--11--11--11--11--11-11--11--11--11--11--11--11--11--11--|
|--9---9---9---9---9---9---9---9--9---9---9---9---9---9---9---9---9---|



|----------------------------------------------------|                                
|----------------------------------------------------|                               
|--5--5--5--5--5--5--5--5-5--3--3--3--5--5--5--5--5--|                                
|--6--6--6--6--6--6--6--6-6--6--6--6--6--6--6--6--6--|                               
|--6--6--6--6--6--6--6--6-6--6--6--6--6--6--6--6--6--|                                
|--4--4--4--4--4--4--4--4-4--4--4--4--4--4--4--4--4--|(*see note at end)

|--------------------------------------------------|
|--------------------4--4--------------------------|
|-----------5--5--5--5--5--5--5--5--5--5--5--5--5--|
|--6--6--6--6--6--6--6--6--6--6--6--6--6--6--6--6--|
|--6--6--6--6--6--6--6--6--6--6--6--6--6--6--6--6--|
|--4--4--4--4--4--4--4--4--4--4--4--4--4--4--4--4--|

|--------------------1-1-----------------------------|
|--------------------1-1-----------------------------|
|--1--1--1--1--1--1--1-1--1--1--1--1--1--1--1--1--1--|
|--3--3--3--3--3--3--3-3--3--3--3--3--3--3--3--3--3--|
|--3--3--3--3--3--3--3-3--3--3--3--3--3--3--3--3--3--|
|--1--1--1--1--1--1--1-1--1--1--1--1--1--1--1--1--1--|

|---------------------------------------------------------------------|
|------------------------------9--9-----------------------------------|
|--10--10--10--10--10--10--10--10-10--10--10--10--10--10--10--10--10--|
|--11--11--11--11--11--11--11--11-11--11--11--11--11--11--11--11--11--|
|--11--11--11--11--11--11--11--11-11--11--11--11--11--11--11--11--11--|
|--9---9---9---9---9---9---9---9--9---9---9---9---9---9---9---9---9---|

|------------------------------------------------------------------|
|----------------------------------11--11--11--11--11--11--11--11--|
|--13--13--13--13--13--13--13--13--12--12--12--12--12--12--12--12--|
|--13--13--13--13--13--13--13--13--13--13--13--13--13--13--13--13--|
|--11--11--11--11--11--11--11--11--11--11--11--11--11--11--11--11--|
|--11--11--11--11--11--11--11--11--11--11--11--11--11--11--11--11--|


Verse 3
|------------------------------------------------------------------|
|------------------------------------------------------------------|
|--13--13--13--13--13--13--13--13--12--12--12--12--12--12--12--12--|
|--13--13--13--13--13--13--13--13--13--13--13--13--13--13--13--13--|
|--11--11--11--11--11--11--11--11--11--11--11--11--11--11--11--11--|
|--11--11--11--11--11--11--11--11--11--11--11--11--11--11--11--11--| x2

|--------------------------------------------------|
|--------------------------------------------------|
|--9--9--9--9--9--9--9--9--8--8--8--8--8--8--8--8--|
|--9--9--9--9--9--9--9--9--9--9--9--9--9--9--9--9--|
|--7--7--7--7--7--7--7--7--7--7--7--7--7--7--7--7--|
|--7--7--7--7--7--7--7--7--7--7--7--7--7--7--7--7--|

|------------------------------------------------------------------|
|------------------------------------------------------------------|
|--13--13--13--13--13--13--13--13--12--12--12--12--12--12--12--12--|
|--13--13--13--13--13--13--13--13--13--13--13--13--13--13--13--13--|
|--11--11--11--11--11--11--11--11--11--11--11--11--11--11--11--11--|
|--11--11--11--11--11--11--11--11--11--11--11--11--11--11--11--11--|


I'm ready to fall...
|--------------------------------------------------|
|--------------------------------------------------|
|--------------------------------------------------|
|--8--8--8--8--8--8--8--8--3--3--3--3--3--3--3--3--|
|--8--8--8--8--8--8--8--8--3--3--3--3--3--3--3--3--|
|--6--6--6--6--6--6--6--6--1--1--1--1--1--1--1--1--|

|--------------------------------------------------|
|--------------------------------------------------|
|--------------------------6--6--6--6--6--6--6--6--|
|--1--1--1--1--1--1--1--1--6--6--6--6--6--6--6--6--|
|--1--1--1--1--1--1--1--1--4--4--4--4--4--4--4--4--|
|--x--x--x--x--x--x--x--x--4--4--4--4--4--4--4--4--|

|--------------------------------------------------|
|--------------------------------------------------|
|--------------------------------------------------|
|--8--8--8--8--8--8--8--8--3--3--3--3--3--3--3--3--|
|--8--8--8--8--8--8--8--8--3--3--3--3--3--3--3--3--|
|--6--6--6--6--6--6--6--6--1--1--1--1--1--1--1--1--|

|--------------------------------------------------|
|--------------------------------------------------|
|--------------------------1--1--1--3--3--3--3--3--|
|--1--1--1--1--1--1--1--1--1--1--1--1--1--1--1--1--|
|--1--1--1--1--1--1--1--1--1--1--1--1--1--1--1--1--|
|--x--x--x--x--x--x--x--x--x--x--x--x--x--x--x--x--|


Chorus         
|--------------------------------------------------|
|--------------------4--4--------------------------|
|-----------5--5--5--5--5--5--5--5--5--5--5--5--5--|
|--6--6--6--6--6--6--6--6--6--6--6--6--6--6--6--6--|
|--6--6--6--6--6--6--6--6--6--6--6--6--6--6--6--6--|
|--4--4--4--4--4--4--4--4--4--4--4--4--4--4--4--4--|

|--------------------1-1-----------------------------|
|--------------------1-1-----------------------------|
|--1--1--1--1--1--1--1-1--1--1--1--1--1--1--1--1--1--|
|--3--3--3--3--3--3--3-3--3--3--3--3--3--3--3--3--3--|
|--3--3--3--3--3--3--3-3--3--3--3--3--3--3--3--3--3--|
|--1--1--1--1--1--1--1-1--1--1--1--1--1--1--1--1--1--|

|---------------------------------------------------------------------|
|------------------------------9--9-----------------------------------|
|--10--10--10--10--10--10--10--10-10--10--10--10--10--10--10--10--10--|
|--11--11--11--11--11--11--11--11-11--11--11--11--11--11--11--11--11--|
|--11--11--11--11--11--11--11--11-11--11--11--11--11--11--11--11--11--|
|--9---9---9---9---9---9---9---9--9---9---9---9---9---9---9---9---9---|

|----------------------------------------------------|                                
|----------------------------------------------------|                               
|--5--5--5--5--5--5--5--5-5--3--3--3--5--5--5--5--5--|                                
|--6--6--6--6--6--6--6--6-6--6--6--6--6--6--6--6--6--|                               
|--6--6--6--6--6--6--6--6-6--6--6--6--6--6--6--6--6--|                                
|--4--4--4--4--4--4--4--4-4--4--4--4--4--4--4--4--4--|

|--------------------------------------------------|
|--------------------4--4--------------------------|
|-----------5--5--5--5--5--5--5--5--5--5--5--5--5--|
|--6--6--6--6--6--6--6--6--6--6--6--6--6--6--6--6--|
|--6--6--6--6--6--6--6--6--6--6--6--6--6--6--6--6--|
|--4--4--4--4--4--4--4--4--4--4--4--4--4--4--4--4--|

|--------------------1-1-----------------------------|
|--------------------1-1-----------------------------|
|--1--1--1--1--1--1--1-1--1--1--1--1--1--1--1--1--1--|
|--3--3--3--3--3--3--3-3--3--3--3--3--3--3--3--3--3--|
|--3--3--3--3--3--3--3-3--3--3--3--3--3--3--3--3--3--|
|--1--1--1--1--1--1--1-1--1--1--1--1--1--1--1--1--1--|

|---------------------------------------------------------------------|
|------------------------------9--9-----------------------------------|
|--10--10--10--10--10--10--10--10-10--10--10--10--10--10--10--10--10--|
|--11--11--11--11--11--11--11--11-11--11--11--11--11--11--11--11--11--|
|--11--11--11--11--11--11--11--11-11--11--11--11--11--11--11--11--11--|
|--9---9---9---9---9---9---9---9--9---9---9---9---9---9---9---9---9---|



|------------------------------------------------------------------|
|------------------------------------------------------------------|
|--13--13--13--13--13--13--13--13--12--12--12--12--12--12--12--12--|
|--13--13--13--13--13--13--13--13--13--13--13--13--13--13--13--13--|
|--11--11--11--11--11--11--11--11--11--11--11--11--11--11--11--11--|
|--11--11--11--11--11--11--11--11--11--11--11--11--11--11--11--11--|

|--------------------------------------------------|
|--------------------------4--4--4--4--4--4--4--4--|
|--6--6--6--6--6--6--6--6--5--5--5--5--5--5--5--5--|
|--6--6--6--6--6--6--6--6--6--6--6--6--6--6--6--6--|
|--4--4--4--4--4--4--4--4--4--4--4--4--4--4--4--4--|
|--4--4--4--4--4--4--4--4--4--4--4--4--4--4--4--4--|

|------------------------------------------------------------------|
|------------------------------------------------------------------|
|--13--13--13--13--13--13--13--13--12--12--12--12--12--12--12--12--|
|--13--13--13--13--13--13--13--13--13--13--13--13--13--13--13--13--|
|--11--11--11--11--11--11--11--11--11--11--11--11--11--11--11--11--|
|--11--11--11--11--11--11--11--11--11--11--11--11--11--11--11--11--|


I'm ready to fall...
|--------------------------------------------------|
|--------------------------------------------------|
|--------------------------------------------------|
|--8--8--8--8--8--8--8--8--3--3--3--3--3--3--3--3--|
|--8--8--8--8--8--8--8--8--3--3--3--3--3--3--3--3--|
|--6--6--6--6--6--6--6--6--1--1--1--1--1--1--1--1--|

|--------------------------------------------------|
|--------------------------------------------------|
|--------------------------6--6--6--6--6--6--6--6--|
|--1--1--1--1--1--1--1--1--6--6--6--6--6--6--6--6--|
|--1--1--1--1--1--1--1--1--4--4--4--4--4--4--4--4--|
|--x--x--x--x--x--x--x--x--4--4--4--4--4--4--4--4--|

|--------------------------------------------------|
|--------------------------------------------------|
|--------------------------------------------------|
|--8--8--8--8--8--8--8--8--3--3--3--3--3--3--3--3--|
|--8--8--8--8--8--8--8--8--3--3--3--3--3--3--3--3--|
|--6--6--6--6--6--6--6--6--1--1--1--1--1--1--1--1--|

|--------------------------------------------------|
|--------------------------------------------------|
|--------------------------1--1--1--3--3--3--3--3--|
|--1--1--1--1--1--1--1--1--1--1--1--1--1--1--1--1--|
|--1--1--1--1--1--1--1--1--1--1--1--1--1--1--1--1--|
|--x--x--x--x--x--x--x--x--x--x--x--x--x--x--x--x--|


Take me there...
|--------------------------------------------------|
|--------------------4--4--------------------------|
|-----------5--5--5--5--5--5--5--5--5--5--5--5--5--|
|--6--6--6--6--6--6--6--6--6--6--6--6--6--6--6--6--|
|--6--6--6--6--6--6--6--6--6--6--6--6--6--6--6--6--|
|--4--4--4--4--4--4--4--4--4--4--4--4--4--4--4--4--|

|--------------------1-1-----------------------------|
|--------------------1-1-----------------------------|
|--1--1--1--1--1--1--1-1--1--1--1--1--1--1--1--1--1--|
|--3--3--3--3--3--3--3-3--3--3--3--3--3--3--3--3--3--|
|--3--3--3--3--3--3--3-3--3--3--3--3--3--3--3--3--3--|
|--1--1--1--1--1--1--1-1--1--1--1--1--1--1--1--1--1--|

|---------------------------------------------------------------------|
|------------------------------9--9-----------------------------------|
|--10--10--10--10--10--10--10--10-10--10--10--10--10--10--10--10--10--|
|--11--11--11--11--11--11--11--11-11--11--11--11--11--11--11--11--11--|
|--11--11--11--11--11--11--11--11-11--11--11--11--11--11--11--11--11--|
|--9---9---9---9---9---9---9---9--9---9---9---9---9---9---9---9---9---|

|----------------------------------------------------|                                
|----------------------------------------------------|                               
|--5--5--5--5--5--5--5--5-5--3--3--3--5--5--5--5--5--|                                
|--6--6--6--6--6--6--6--6-6--6--6--6--6--6--6--6--6--|                               
|--6--6--6--6--6--6--6--6-6--6--6--6--6--6--6--6--6--|                                
|--4--4--4--4--4--4--4--4-4--4--4--4--4--4--4--4--4--|


Chorus
|--------------------------------------------------|
|--------------------4--4--------------------------|
|-----------5--5--5--5--5--5--5--5--5--5--5--5--5--|
|--6--6--6--6--6--6--6--6--6--6--6--6--6--6--6--6--|
|--6--6--6--6--6--6--6--6--6--6--6--6--6--6--6--6--|
|--4--4--4--4--4--4--4--4--4--4--4--4--4--4--4--4--|

|--------------------1-1-----------------------------|
|--------------------1-1-----------------------------|
|--1--1--1--1--1--1--1-1--1--1--1--1--1--1--1--1--1--|
|--3--3--3--3--3--3--3-3--3--3--3--3--3--3--3--3--3--|
|--3--3--3--3--3--3--3-3--3--3--3--3--3--3--3--3--3--|
|--1--1--1--1--1--1--1-1--1--1--1--1--1--1--1--1--1--|

|---------------------------------------------------------------------|
|------------------------------9--9-----------------------------------|
|--10--10--10--10--10--10--10--10-10--10--10--10--10--10--10--10--10--|
|--11--11--11--11--11--11--11--11-11--11--11--11--11--11--11--11--11--|
|--11--11--11--11--11--11--11--11-11--11--11--11--11--11--11--11--11--|
|--9---9---9---9---9---9---9---9--9---9---9---9---9---9---9---9---9---|

|------------------------------------------------------------------|
|------------------------------------------------------------------|
|--13--13--13--13--13--13--13--13--12--12--12--12--12--12--12--12--|
|--13--13--13--13--13--13--13--13--13--13--13--13--13--13--13--13--|
|--11--11--11--11--11--11--11--11--11--11--11--11--11--11--11--11--|
|--11--11--11--11--11--11--11--11--11--11--11--11--11--11--11--11--|

|-------------------------------------------------------------------------|
|-------------------------------------------------------------------------|
|--13--13--13--13--13--13--13--13--12--12--12--12--12--12--12--12-----13--|
|--13--13--13--13--13--13--13--13--13--13--13--13--13--13--13--13-----13--|
|--11--11--11--11--11--11--11--11--11--11--11--11--11--11--11--11-----11--|
|--11--11--11--11--11--11--11--11--11--11--11--11--11--11--11--11-----11--|





*  For this chord put your index finger on the 3rd fret, pinky and ring on 6th , 
and middle on 4th 
  
--- 
---
-3-  
-6-
-6-
-4- 

There may be an easier way to play this chord, but I haven't figured it out yet =P



Share "World Behind My Wall Acoustic" by Tokio Hotel


TOP 10 TABS

FRESH NEW TABS

ALL ARTISTS
artist wiki

mp3bear.com
song lyrics / contact us / privacy policy / tabspace toolbar
Copyright 2004 - 2014 TabSpace.com - All Rights Reserved.
song: world behind my wall acoustic guitar tabs by tokio hotel

0.002