:: Guitar & Bass Tabs Make Home Page
A B C D E F G H I J K L M N O P Q R S T U V W X Y Z #

  for    

On TABSPACE
Info About This Tab
Artist: 30 Seconds To Mars
Tab Type: Guitar
Difficulty: novice
Rate This Tab!
-------------------------------------------------------------------------------
			    YEAR ZERO  Ė 30 Seconds To Mars
-------------------------------------------------------------------------------
Tabbed by: Maasman (colton maas)
Email:coolguybydaylol@hotmail.com

Tuning: normal tuning

GRT 1: Rhythm Guitar
GTR 2: Lead Guitar

Note :on your amp put it at full gain and almost no volume, ĺ bass, ľ middle, ĺ treble 
on your guitar put it on the sharpest settings and itíll sound exactly like the song. 
I DIDNíT TAB THE LEAD GUITAR BECAUSE I DONíT HAVE A PEDAL AND IM TO LAZY TO FIGURE IT ALL OUT!


GTR 1
E|-----------------------------------------------------------------------------|
B|-----------------------------------------------------------------------------|
G|-----------------------------------------------------------------------------|
D|6---9---4---11--4---3---6---9---4---11---4---13------------------------------|
A|6---9---4---11--4---3---6---9---4---11---4---13--------(x2)------------------|
E|4---7---2----9---2---1---4---7---2---9---2---11------------------------------|


GTR 1
E|---------------------------------------------------------------------------|
B|---------------------------------------------------------------------------|
G|---------------------------------------------------------------------------|
D|---------------------------------------------------------------------------|
A|---------------------------------------------------------------------------|
E|(444444444444)(48 times...)------------------------------------------------|

GTR 1
E|--------------------------------------------------------------------------|
B|--------------------------------------------------------------------------|
G|--------------------------------------------------------------------------|
D|--------------------------------------------------------------------------|
A|--------------------------------------------------------------------------|
E|(4444)5-(4444444)6 (4444)5-(444444)6-4--------------------(x2)------------|
(palm mute all the 4ís accept the last one after the 6)


GTR 1
E|-----------------------------------------------------------------------------|
B|-----------------------------------------------------------------------------|
G|-----------------------------------------------------------------------------|
D|6---9---4---11--4---3---6---9---4---11---4---13------------------------------|
A|6---9---4---11--4---3---6---9---4---11---4---13--------(x2)------------------|
E|4---7---2----9---2--1---4---7---2----9---2---11------------------------------|


GTR 1
E|---------------------------------------------------------------------------|
B|---------------------------------------------------------------------------|
G|---------------------------------------------------------------------------|
D|---------------------------------------------------------------------------|
A|---------------------------------------------------------------------------|
E|(444444444444)(48? times...)-----------------------------------------------|

GTR 1
E|--------------------------------------------------------------------------|
B|--------------------------------------------------------------------------|
G|--------------------------------------------------------------------------|
D|--------------------------------------------------------------------------|
A|--------------------------------------------------------------------------|
E|(4444)5-(4444444)6 (4444)5-(444444)6-4--------------------(x2)------------|
(palm mute all the 4ís accept the last one after the 6)


GTR 1
E|-------------------------------------------------------------------------------|
B|-------------------------------------------------------------------------------|
G|-------------------------------------------------------------------------------|
D|6---9---4---11--4---3---6---9---4---11---4---13--------------------------------|
A|6---9---4---11--4---3---6---9---4---11---4---13--------------------------------|
E|4---7---2----9---2---1---4---7---2---9---2---11---12-11-9----------------------|

GTR 1
E|-----------------------------------------------------------------------------|
B|-----------------------------------------------------------------------------|
G|-----------------------------------------------------------------------------|
D|6---9---4---11--4---3---6---9---4---11---4---13------------------------------|
A|6---9---4---11--4---3---6---9---4---11---4---13------------------------------|
E|4---7---2----9---2---1---4---7---2----9---2---11-----------------------------|


(acoustic) then (base + vocals)

(3:28)
GTR 1
E|-------------------------------------------------------------------------|
B|-------------------------------------------------------------------------|
G|-------------------------------------------------------------------------|
D|-------------------------------------------------------------------------|
A|-------------------------------------------------------------------------|
E|(4444)5-(4444444)6-(4444)5-(4444444)6-4-----(x8)-------------------------|

If its in brackets its palm muted


Share "Year Zero" by 30 Seconds To Mars


TOP 10 TABS

FRESH NEW TABS

ALL ARTISTS
artist wiki

mp3bear.com
song lyrics / contact us / privacy policy / tabspace toolbar
Copyright © 2004 - 2014 TabSpace.com - All Rights Reserved.
song: year zero guitar tabs by 30 seconds to mars

0.01