:: Guitar & Bass Tabs Make Home Page
A B C D E F G H I J K L M N O P Q R S T U V W X Y Z #

  for    

On TABSPACE
Info About This Tab
Artist: Hard-fi
Tab Type: Bass
Difficulty: novice
Rate This Tab!
s=slap
x=ghost note
P=pop
+=harmonic
=let it ring
h=hammer

Start off the song with

G|--------------------------------|
D|--p-h2--------------------------|
A|--------------------------------|
E|-----------s--------------------|

Intro: (after guitar bit)

G|---7-7---8---9--9-9--6-7--8-8---------------------|
D|--------------------------------------------------|
A|--------------------------------------------------|
E|--------------------------------------------------|
                                    x4

Verse:

G|--------------------------------8-8-8-8------------------------|
D|--9-9-9-9-7-7-7-7-8-8-8-8--------------------------------------|
A|---------------------------------------------------------------|
E|--------------------------------------------------4-4-4-4------|

G|-------------------------------------------------------------------~---|
D|------------------------6-6-6-6-6-6-6-6-4-4-4-4-4-4-4-4----------------|
A|--4-4-4-4-4-4-4-4------------------------------------------------------|
E|-----------------------------------------------------------------------|

Chorus:

G|-----------------------------------------|
D|-----------------------------------------|
A|-----------------------------------------|
E|--5-5-5-5-5-5-5-5slideto-8-8-8-8-8-8-8-8-|

G|----------------------------------------------------|
D|----------------------------------------------------|
A|----------------------6-6-6-6-6-6-6-6-6-6-6-6-6-6-6-|
E|--3-3-3-3-3-3-3-3-----------------------------------|

Verse:

G|-----------------------------------------------------------------3-3--3--|
D|---5--5-5---5--5-5---6--6-6---6--6-6-------------------------------------|
A|---------------------------------------------4--4-4---4--4-4-------------|
E|-------------------------------------------------------------------------|

G|------------------------------------------------------3-3--3.---|
D|--6-6--p6---------------------8-8-8-8-8-8-8-8------------------------|
A|---------------------------------------------------------------------|
E|---------------4-4--4------s-----------------------------------------|


Chorus:

G|-----------------------------------------|
D|-----------------------------------------|
A|-----------------------------------------|
E|--5-5-5-5-5-5-5-5slideto-8-8-8-8-8-8-8-8-|

G|----------------------------------------------------|
D|----------------------------------------------------|
A|----------------------6-6-6-6-6-6-6-6-6-6-6-6-6-6-6-|
E|--3-3-3-3-3-3-3-3-----------------------------------|

G|-------------------------0-----------------------------+................|
D|------------------------------------------------------------------------|
A|-------------------------------3-3-3-3-3-3-3-3--------------------------|
E|--7-7-7-7-7-7-7-7-------------------------------------------------------|


Share "You And Her" by Hard-fi


TOP 10 TABS

FRESH NEW TABS

ALL ARTISTS
artist wiki

mp3bear.com
song lyrics / contact us / privacy policy / tabspace toolbar
Copyright 2004 - 2014 TabSpace.com - All Rights Reserved.
song: you and her bass tabs by hard-fi

0.011