:: Guitar & Bass Tabs Make Home Page
A B C D E F G H I J K L M N O P Q R S T U V W X Y Z #

  for    

On TABSPACE
Info About This Tab
Artist: Hazen Street
Tab Type: Guitar
Rate This Tab!


-------------------------------------------------------------------------------
			     SONG NAME - Band Name
-------------------------------------------------------------------------------
Tabbed by:
Email:

Tuning:
 INTRO
e|-------------------------------------------------------------------------|
B|-------------------------------------------------------------------------|
G|-------------------------------------------------------------------------|
D|2-2-2-3-5-5-5-0-0-0-3-2-2-2-2-0-2-2-2-3-5-5-5-0-0-0-3-2-2-2-2------------|
A|2-2-2-3-5-5-5-0-0-0-3-2-2-2-2-0-2-2-2-3-5-5-5-0-0-0-3-2-2-2-2--------X2--|
E|2-2-2-3-5-5-5-0-0-0-3-2-2-2-2-0-2-2-2-3-5-5-5-0-0-0-3-2-2-2-2------------|
  VERSE
e|-------------------------------------------------------------------|
B|-------------------------------------------------------------------|
G|-------------------------------------------------------------------|
D|2X-2X-2X-2X-3X-3X-3X-3X-5X-5X-5X-8-7-------------------------------|
A|2X-2X-2X-2X-3X-3X-3X-3X-5X-5X-5X-8-7---------------------------X4--|
E|2X-2X-2X-2X-3X-3X-3X-3X-5X-5X-5X-8-7-------------------------------|
PRE- CHORUS
e|-----------------------------------------------------|
B|-----------------------------------------------------|
G|-----------------------------------------------------|
D|8-8-8-8-5-5-5-5-8-7-8-8-8-8-10-10-10-10-10-10-10-10--|
A|8-8-8-8-5-5-5-5-8-7-8-8-8-8-10-10-10-10-10-10-10-10--|
E|8-8-8-8-5-5-5-5-8-7-8-8-8-8-10-10-10-10-10-10-10-----|
CHORUS
e|-----------------------------------------------------------------------|
B|-----------------------------------------------------------------------|
G|-----------------------------------------------------------------------|
D|2-2-2-3-5-5-5-0-0-0-3-2-2-2-2-0-2-2-2-3-5-5-5-0-0-0-3-2-2-2-2----------|
A|2-2-2-3-5-5-5-0-0-0-3-2-2-2-2-0-2-2-2-3-5-5-5-0-0-0-3-2-2-2-2------X4--|
E|2-2-2-3-5-5-5-0-0-0-3-2-2-2-2-0-2-2-2-3-5-5-5-0-0-0-3-2-2-2-2----------|


Share "Are You Ready Intro" by Hazen Street


TOP 10 TABS

FRESH NEW TABS

ALL ARTISTS
artist wiki

TabSpace.com / contact us / privacy policy / tabspace toolbar
Copyright 2004 - 2022 TabSpace.com - All Rights Reserved.
song: are you ready intro guitar tabs by hazen street