:: Guitar & Bass Tabs Make Home Page
A B C D E F G H I J K L M N O P Q R S T U V W X Y Z #

  for    

On TABSPACE
Info About This Tab
Artist: Scorpions
Tab Type: Bass
Difficulty: intermediate
Rate This Tab!
I'm not sure whether this is correct but sounds pretty good when i play it.

Also listen for correct timing

* = let string ring
/ = slide down

(intro) Bass begins at (00:08secs) 
G|------------------------------------------------------------|
D|------------------------------------------------------------|
A|------------------------------------------------------------|
E|-5-3-5-3-5/-33-0-1-3----------------------------------------|

Verse 1 (00:16)
G|------------------------------------------------------------|
D|------------------------------------------------------------|
A|------------------------------------------------------------|
E|-5-3-5-3-5/-33-0-1-3----------------------------------------|


Chorus (00:46)
G|------------------------------------------------------|
D|------------------------------------------------------|
A|-----------------5-3----------------------------------|
E|-3*-5*-7*-5*-3*-----5-3*-5*-7*-5*-3-5-3-5-3-3-5-3-5-3-|

Chorus Cont.
G|-------------------------------------------------------|
D|-------------------------------------------------------|
A|-------------------------------------------------------|
E|-3-5-3-5-3-5-3-5-3/------------------------------------|


Pre Verse (1:08) and continue into verse 2
G|------------------------------------------------------------|
D|------------------------------------------------------------|
A|------------------------------------------------------------|
E|-5-3-5-3-5/--33-0-1-3---------------------------------------|



Chorus (1:54) a slight change
G|------------------------------------------------------|
D|------------------------------------------------------|
A|-----------------5-3----------------------------------|
E|-3*-5*-7*-5*-3*-----5-3*-5*-77-55-3-5-3-5-3-3-5-3-5-3-| 


Chorus Continued
G|-------------------------------------------------------|
D|-------------------------------------------------------|
A|-------------------------------------------------------|
E|-3-5-3-5-3-5-3-5-3/------------------------------------|

Solo (2:16) continue this riff through the solo
G|-------------------------------------------------------|
D|-------------------------------------------------------|
A|-------------------------------------------------------|
E|-5-3-5-3-5/--33-0-1-3----------------------------------|

Chorus (2:47)
G|------------------------------------------------------|
D|------------------------------------------------------|
A|-----------------5-3----------------------------------|
E|-3*-5*-7*-5*-3*-----5-3*-5*-77-55-3-5-3-5-3-3-5-3-5-3-| 


Chorus Continued
G|-------------------------------------------------------|
D|-------------------------------------------------------|
A|-------------------------------------------------------|
E|-3-5-3-5-3-5-3-5-3/------------------------------------|

Outro
G|-------------------------------------------------------|
D|-------------------------------------------------------|
A|-------------------------------------------------------|
E|-5-3-5-3-5/--33-0-1-3----------------------------------|

The song is pretty repetitive but is awesome to play

oh yeah and this is the first song i've tabbed
 
for comments or questions e-mail me king_willie_01@hotmail.com


Share "Arizona" by Scorpions


TOP 10 TABS

FRESH NEW TABS

ALL ARTISTS
artist wiki

TabSpace.com / contact us / privacy policy / tabspace toolbar
Copyright 2004 - 2022 TabSpace.com - All Rights Reserved.
song: arizona bass tabs by scorpions