:: Guitar & Bass Tabs Make Home Page
A B C D E F G H I J K L M N O P Q R S T U V W X Y Z #

  for    

On TABSPACE
Info About This Tab
Artist: Hazen Street
Tab Type: Guitar
Difficulty: novice
Rate This Tab!
(intro)

|------------------------------------------------------------|
|------11----------11-------------11------999-11--777-11-----|
|-8888---888---6666----666---4444----444---------------------|
|------------------------------------------------------------|
|--------(This will be needed for other parts of the song)---|
|------------------------------------------------------------|


|----------------------------------------------------------------|
|------11----------11-------------11-----------------------------|
|-8888---888---6666----666---4444----444---x4-x6-----------------|
|------------------------------------------x4-x6-----------------|
|------------------------------------------x2-x4-----------------|
|----------------------------------------------------------------|

(play intro behind this)
|----------------------------------------------------------------|
|----------------------------------------------------------------|
|----8--------8-6--------6-4--------4-5------6-----------(x2)----|
|----8-4h6-4--8-6-4h6-4--6-4-4h6-4--4-5-4h6--6-4h6---------------|
|----6--------6-4--------4-2--------2-3------4-------------------|
|----------------------------------------------------------------|


|------------------------------------------------------------------|
|------------------------------------------------------------------|
|------------------------------------------------------------------|
|-----13~-131313-16~-161616-9~-999-11~-111111--x2--(8)-------------|
|-----13~-111111-16~-161616-9~-999-11~-111111------(8)-(end of x2)-|
|-----11~-111111-14~-141414-7~-777-9-~-9-9-9-------(6)-------------|

|------------------------------------------------------------------|
|------------------------------------------------------------------|
|-----8-----------11----------4----------6-------------------------|
|-----8-(p.m-x7)--11-(p.m-X7)-4-(p.m-x7)-6-(p.m-x7)----------------|
|-----6-----------9-----------2----------4-------------------------|
|------------------------------------------------------------------|

|-------------------------------------------------------------------|
|-------------------------------------------------------------------|
|-----8-----------11----------4-----------6~-3~---------------------|
|-----8-(p.m-x7)--11-(p.m-X7)-4-(p.m-x7)--6~-3~---------------------|
|-----6-----------9-----------2-----------4~-1~---------------------|
|-------------------------------------------------------------------|

(chorus)
|----------------------------------------------------------------|
|----------------------------------------------------------------|
|----8--------8-6--------6-4--------4-5------6-------------------|
|----8-4h6-4--8-6-4h6-4--6-4-4h6-4--4-5-4h6--6-4h6-------(x2)----|
|--- 6--------6-4--------4-2--------2-3------4-------------------|
|----------------------------------------------------------------|

|------------------------------------------------------------------|
|------------------------------------------------------------------|
|------------------------------------------------------------------|
|-----13~-131313-16~-161616-9~-999-11~-111111--x2--(8)-------------|
|-----13~-111111-16~-161616-9~-999-11~-111111------(8)-(end of x2)-|
|-----11~-111111-14~-141414-7~-777-9-~-9-9-9-------(6)-------------|

|------------------------------------------------------------------|
|------------------------------------------------------------------|
|-----8-----------11----------4----------6-------------------------|
|-----8-(p.m-x7)--11-(p.m-X7)-4-(p.m-x7)-6-(p.m-x7)----------------|
|-----6-----------9-----------2----------4-------------------------|
|------------------------------------------------------------------|

|---------------------------------------------------------------------|
|---------------------------------------------------------------------|
|-----8-----------11----------4-----------6~-3~-----------------------|
|-----8-(p.m-x7)--11-(p.m-X7)-4-(p.m-x7)--6~-3~-----------------------|
|-----6-----------9-----------2-----------4~-1~-----------------------|
|---------------------------------------------------------------------|

(chorus)
|----------------------------------------------------------------|
|----------------------------------------------------------------|
|----8--------8-6--------6-4--------4-5------6-------------------|
|----8-4h6-4--8-6-4h6-4--6-4-4h6-4--4-5-4h6--6-4h6-------(x4)----|
|----6--------6-4--------4-2--------2-3------4-------------------|
|----------------------------------------------------------------|

|--------------------------------------------------------------|
|--------------------------------------------------------------|
|--8~---4---------6---------8---------6---8--------------------|
|--8~---4-(x14)---6-(x14)---8-(x14)---6---8-(x14)--------------|
|--6~---2---------4---------6---------4---6--------------------|
|--------------------------------------------------------------|

|------------------------------------------------------------------|
|------------------------------------------------------------------|
|------------------------------------------------------------------|
|-----13~-131313-16~-161616-9~-999-11~-111111----------------------|
|-----13~-111111-16~-161616-9~-999-11~-111111----------------------|
|-----11~-111111-14~-141414-7~-777-9-~-9-9-9-----------------------|


|------------------------------------------------------------------|
|------------------------------------------------------------------|
|-------------------------------x4-x6------------------------------|
|-----13~-131313-16~-161616-9~--x4-x6------------------------------|
|-----13~-111111-16~-161616-9~--x2-x4------------------------------|
|-----11~-111111-14~-141414-7~-------------------------------------|

(chorus)
|----------------------------------------------------------------|
|----------------------------------------------------------------|
|----8--------8-6--------6-4--------4-4------6-------------------|
|----8-4h6-4--8-6-4h6-4--6-4-4h6-4--4-4-4h6--6-4h6------(x4)-----|
|--- 6--------6-4--------4-2--------2-2------4-------------------|
|----------------------------------------------------------------|
(outro) (intro played behind this sometimes)
|----------------------------------------------------------------|
|----------------------------------------------------------------|
|----8~-8--6~-6--4~-4-5~-6~--------------------------------------|
|----8~-8--6~-6--4~-4-5~-6~----(repeat as many times as needed)--|
|----6~-8--4~-4--2~-2-3~-4~--------------------------------------|
|----------------------------------------------------------------|



Share "Back Home" by Hazen Street


TOP 10 TABS

FRESH NEW TABS

ALL ARTISTS
artist wiki

TabSpace.com / contact us / privacy policy / tabspace toolbar
Copyright 2004 - 2022 TabSpace.com - All Rights Reserved.
song: back home guitar tabs by hazen street