:: Guitar & Bass Tabs Make Home Page
A B C D E F G H I J K L M N O P Q R S T U V W X Y Z #

  for    

On TABSPACE
Info About This Tab
Artist: Kasabian
Tab Type: Bass
Rate This Tab!
Artist: kasabian
Song: black whistler
Tunning: standard
Tabbed By: indie nation


Intro:

G|------4---4-4-4----4---4-4-4------4---------|
D|-------------------------------------4-4-4--|
A|-2-2------------2-2-----------2-2-----------|
E|--------------------------------------------|

Verse:
G|------4---4-4-4-|
D|----------------|
A|-2-2------------| x 3
E|----------------|

G|------4-------|
D|--------4-4-4-|
A|-2-2----------| x 1
E|--------------|

 There are some slight variations in the song


Share "Black Whistler" by Kasabian


TOP 10 TABS

FRESH NEW TABS

ALL ARTISTS
artist wiki

TabSpace.com / contact us / privacy policy / tabspace toolbar
Copyright 2004 - 2022 TabSpace.com - All Rights Reserved.
song: black whistler bass tabs by kasabian