:: Guitar & Bass Tabs Make Home Page
A B C D E F G H I J K L M N O P Q R S T U V W X Y Z #

  for    

On TABSPACE
Info About This Tab
Artist: Scorpions
Tab Type: Bass
Rate This Tab!
Artist:Scorpions
Song:Blackout
Album:Blackout
Bassist:Francis Buchholz
Tabber:Dev Fuld

I received a request for this song, so here ya go. Awesome tune, this tab is 
correct.

Key:
x = mute or times a number
* = let it ring

Intro
G:------------------------------------------------------------------------|
D:------------------------------------------------------------------------|
A:7-x-7-x-7-7-x-7-x-7-7-x-7-x-7-7-x-7-x-7-7-x-7-x-7-7-x-7-x-7-7-x-7-x-7-5*|
E:------------------------------------------------------------------------|

Verse
G:-------------------------------------------------|
D:--------------------5-x-5-x-5--------------------|
A:7-x-7-x-7-7-x-7-x-7-----------3-x-3-x-3-3-x-3-x-3|
E:-------------------------------------------------|

G:-------------------------------------------------|
D:--------------------5-x-5-x-5--------------------|
A:7-x-7-x-7-7-x-7-x-7-----------3-x-3-x-3-3-x-3-x-3|
E:-------------------------------------------------|

G:-------------------------------------|
D:-------------------------------------|
A:5*-3-x-3-x-3-3-x-3-x-3-5*-3-x-3-x-3-3|
E:-------------------------------------|

Verse

Chorus
G:-----------------------|     G:--------------------------------------|
D:-----------------------|     D:--------------------------------------|
A:7-5----3-2-0---0-------|     A:7-5-----3-2-0----3-2-0----3-2-0------7|
E:----00-------3---3-2-00| x7  E:----000-------3*-------3*-------3*----|

Intro

Verse

Chorus

Solo = Intro x2

Third part of Verse

Chorus through End

That's it. This is such an awesome tune...it's one of the songs that gets 
lodged in the back of your head. I already put it in order, so rock on. Any comments 
or questions, e-mail me at rocklvson@yahoo.com



Share "Blackout" by Scorpions


TOP 10 TABS

FRESH NEW TABS

ALL ARTISTS
artist wiki

TabSpace.com / contact us / privacy policy / tabspace toolbar
Copyright 2004 - 2022 TabSpace.com - All Rights Reserved.
song: blackout bass tabs by scorpions