:: Guitar & Bass Tabs Make Home Page
A B C D E F G H I J K L M N O P Q R S T U V W X Y Z #

  for    

On TABSPACE
Info About This Tab
Artist: Kasabian
Tab Type: Guitar
Rate This Tab!
Theres a lot going on in this 
song, and I've figured out 
most of it. Everything is here 
aside from some of the strings.

Intro/Verse Riff:
(Guitar)
e------------------|
B------------------|
G------------------|
D------------------|
A------------------|
E-12-10-8-7-8-7-5--| 

e-----------------------|
B-----------------------|
G-----------------------|
D-----------------------|
A-------10--------------|
E-12-10----12-12-10-8-7-|

Chorus Riff:
(Bass Guitar)
e---------|
B---------|
G---------|
D---------|
A---------|
E-5-3-0-3-|

Play each note as many times
as needed.
ex. E-5-5-5-5-0-0-0-0-3-3-3-3-|
etc.

Chorus:
(Guitar for vocals)
e-----------------------|
B-----------------------|
G-----------------------|
D-----------------------|
A-----------------------|
E-3-5-3-3-5-3-5-3-0-3-5-|

Synth Breakdown:

e-------------------------|
B-2-5-7-8-7-5-8-7-5-8-7-5-|
G-------------------------|
D-------------------------|
A-------------------------|
E-------------------------|etc.

Ending String Riff:

e---------------------|
B---------------------|
G---------------------|
D---------------------|
A---------------------|
E-5-10-8-7-1-8-10-7-5-|

Synth Bass:

e-------------------------------|
B-------------------------------|
G-------------------------------|
D-------------------------------|
A-------------------------------|
E-5-5-12-10h12-10/8-8-8-5-5-5-5-|

Sorry I don't know all the String parts.
This is all you need and more to play the
song on guitar though.

Any comments, addition, corrections, etc.
You can leave a comment or email me at,
Seifer_alamasy@yahoo.com


Share "By My Side" by Kasabian


TOP 10 TABS

FRESH NEW TABS

ALL ARTISTS
artist wiki

TabSpace.com / contact us / privacy policy / tabspace toolbar
Copyright 2004 - 2022 TabSpace.com - All Rights Reserved.
song: by my side guitar tabs by kasabian