:: Guitar & Bass Tabs Make Home Page
A B C D E F G H I J K L M N O P Q R S T U V W X Y Z #

  for    

On TABSPACE
Info About This Tab
Artist: Hit The Lights
Tab Type: Guitar
Difficulty: novice
Tuning: Drop D
Rate This Tab!
This is off the new Coast to Coast EP, first track, and I sat here bored cuz this site
too little Hit The Lights tabs. So enjoy, I think this is at least 95% correct, any
please tell me and I'll correct it.

Intro (Take your bass knob on your amp and turn it off for best sound):
E---------------------------------|----------------------------------|
B---------------------------------|----------------------------------|
G---------------------------------|----------------------------------|
D-0-0-7p0h2h4-0-0-2p0h2h4-0-0-2p0-|-0-0-7p0h2h4-0-0-2p0h2h4-0-0-2h4--|
A---------------------------------|----------------------------------|
D---------------------------------|----------------------------------|
  . .         . .         . .       . .         . .         . .

E---------------------------------|----------------------------------|
B---------------------------------|----------------------------------|
G---------------------------------|----------------------------------|
D-0-0-7p0h2h4-0-0-2p0h2h4-0-0-2p0-|-0-0-7p0h2h4-0-0-5~~~~~-----------|
A---------------------------------|----------------------------------|
D---------------------------------|----------------------------------|
  . .         . .         . .       . .         . . +

This is the rhythm played over the intro, also turn the bass switch off
E------------------------------------------------------------|
B------------------------------------------------------------|
G------------------------------------------------------------|
D-5--0--0--0--0-0-0--0--0------------------------------------|
A-5--0--0--0--0-0-0--0--0------------------------------------|
D-5--0--0--0--0-0-0--0--0------------------------------------|
              . .

When you finish the intro, turn the bass back on and play this over the intro again, the
part is the transition between the intro and the verse. (During the verse strum an open
chord on the D A and D strings, and thats all, maybe mute it a couple times. there is a 
riff in there but its pretty incomprehensible so im just saying the rhythm)
E-----------------------------------|-------------------------|
B-----------------------------------|-------------------------|
G-----------------------------------|-------------------------|
D-5--0--0--0--0-0-0--0--0--0-0-0-5--|-------------------------|
A-5--0--0--0--0-0-0--0--0--0-0-0-5--|-------------------------|
D-5--0--0--0--0-0-0--0--0--0-0-0-5--|--5-5-5-7h9-9-5h7--------|
              . .          . . .         . .     .

Part of the verse and the pre-chorus, with the 10's, silence them as soon as you hit them.
E----------------------------------|----------------------------------|
B----------------------------------|----------------------------------|
G----------------------------------|----------------------------------|
D--5-5-5-5-9-9-9-9-7-7-7-7-0-0-0-0-|-10--10--10--10--5-5-5-5-5-5-5-5--|
A--5-5-5-5-9-9-9-9-7-7-7-7-0-0-0-0-|-10--10--10--10--5-5-5-5-5-5-5-5--|
D--5-5-5-5-9-9-9-9-7-7-7-7-0-0-0-0-|-10--10--10--10--5-5-5-5-5-5-5-5--|
   "When we're daaays awaaay...."                      . . .

E------------------------------------------------------------------|
B------------------------------------------------------------------|
G------------------------------------------------------------------|
D-0-0-0-0-0-0-0-0-5-5-5-5-5-5-5-5-0-0-0-0-0-0-7-5~-5-5-5-5-5-5-5---|
A-0-0-0-0-0-0-0-0-5-5-5-5-5-5-5-5-0-0-0-0-0-0-7-5~-5-5-5-5-5-5-5---|
D-0-0-0-0-0-0-0-0-5-5-5-5-5-5-5-5-0-0-0-0-0-0-7-5~-5-5-5-5-5-5-5---|

E-----------------------------------------------------------------|
B-----------------------------------------------------------------|
G-----------------------------------------------------------------|
D-9-9-9-9-9-9-9-9-5-5-5-5-5-5-5-5-9-9-9-9-9-9-9-9-7-7-7-7-7-------|
A-9-9-9-9-9-9-9-9-5-5-5-5-5-5-5-5-9-9-9-9-9-9-9-9-7-7-7-7-7-------|
D-9-9-9-9-9-9-9-9-5-5-5-5-5-5-5-5-9-9-9-9-9-9-9-9-7-7-7-7-7-------|
                          . . . .

Intro
Verse
Pre
Chorus

Bridge
E--------------------------------------------------------------------|
B--------------------------------------------------------------------|
G--------------------------------------------------------------------|
D-9-9-9-9-9-9-9-9-5-5-5-5-5-5-5-5-7-7-7-7-7-7-7-7-12-12--12-11-11----|
A-9-9-9-9-9-9-9-9-5-5-5-5-5-5-5-5-7-7-7-7-7-7-7-7-12-12--12-11-11----|
D-9-9-9-9-9-9-9-9-5-5-5-5-5-5-5-5-7-7-7-7-7-7-7-7-12-12--12-11-11----|

E-----------------------------|
B-----------------------------|
G-----------------------------|
D-9--9--9--9--9-9-9-9-9-9-9-9-|
A-9--9--9--9--9-9-9-9-9-9-9-9-|
D-9--9--9--9--9-9-9-9-9-9-9-9-|
                . . . . . . .

E-------------------------------|----------------------------------|
B-------------------------------|----------------------------------|
G-------------------------------|----------------------------------|
D-------------------------------|-0-4-5-0-4-5-0-4-5-0-4-5-0-0-0----|
A-------------------------------|-0-4-5-0-4-5-0-4-5-0-4-5-0-0-0----|
D-0-4-5-0-4-5-0-4-5-0-4-5-0-0-0-|-0-4-5-0-4-5-0-4-5-0-4-5-0-0-0----|
                          . . .                         . . .
Solo:
E------------------------------------------------------------------|
B-5-10-5-7-0~--5-10-5-7-5-9b\r~-5-10-5-7-0~--5-10-5-7-5-7-9-5------|
G------------------------------------------------------------------|
D------------------------------------------------------------------|
A------------------------------------------------------------------|
D------------------------------------------------------------------|

Pre
Chorus

Second chorus:
E--------------------------------------------------------------------|
B--------------------------------------------------------------------|
G--------------------------------------------------------------------|
D-9-9-9-9-9-9-9-9-7-7-7-7-7-7-7-7-5-5-5-5-5-5-5-5-2-2-2-2-2-2-2-2----|
A-9-9-9-9-9-9-9-9-7-7-7-7-7-7-7-7-5-5-5-5-5-5-5-5-2-2-2-2-2-2-2-2----|
D-9-9-9-9-9-9-9-9-7-7-7-7-7-7-7-7-5-5-5-5-5-5-5-5-2-2-2-2-2-2-2-2----|

E--------------------------------------------------------------------|
B--------------------------------------------------------------------|
G--------------------------------------------------------------------|
D-9-9-9-9-9-9-9-9-5-5-5-5-5-5-5-5-9-9-9-9-9-9-9-9-7-7-7-7-7----------|
A-9-9-9-9-9-9-9-9-5-5-5-5-5-5-5-5-9-9-9-9-9-9-9-9-7-7-7-7-7----------|
D-9-9-9-9-9-9-9-9-5-5-5-5-5-5-5-5-9-9-9-9-9-9-9-9-7-7-7-7-7----------|

End on (with the intro in the background):
E--------------------------------------------|
B--------------------------------------------|
G--------------------------------------------|
D--5~~~~--0~~~~--5~~~~--4~~~~--0~~~~~~~~-----|
A--5~~~~--0~~~~--5~~~~--4~~~~--0~~~~~~~~-----|
D--5~~~~--0~~~~--5~~~~--4~~~~--0~~~~~~~~-----|

Legend (in order of appearance):
.= Palm mute
+= Harmonic
b= Bend
r= release
~= Sustain

That's it, Coast To Coast. Can't wait for the new HTL album, HTL ROCKS. Hope you enjoy,
comment & rate, thank you.


Share "Coast To Coast" by Hit The Lights


TOP 10 TABS

FRESH NEW TABS

ALL ARTISTS
artist wiki

TabSpace.com / contact us / privacy policy / tabspace toolbar
Copyright 2004 - 2022 TabSpace.com - All Rights Reserved.
song: coast to coast guitar tabs by hit the lights