:: Guitar & Bass Tabs Make Home Page
A B C D E F G H I J K L M N O P Q R S T U V W X Y Z #

  for    

On TABSPACE
Info About This Tab
Artist: Insane Clown Posse
Tab Type: Guitar
Difficulty: novice
Rate This Tab!
Really Easy lol I wanted to tabs it for all the Juggalos and lettes. MCL yall


Chorus 1:
e|------------------------------------------|
B|------------------------------------------|
G|------------------------------------------|
D|-13--12--11-10-9-8--7--6--5-4-3-2---------|
A|-13--12--11-10-9-8--7--6--5-4-3-2---------|
E|-11--10--9--8--7-6--5--4--3-2-1-0---------|


Chorus 2:
e|------------------------------------------|
B|------------------------------------------|
G|------------------------------------------|
D|-13--12--11-10-9-8--7--6--5-4-3-2---------|
A|-13--12--11-10-9-8--7--6--5-4-3-2---------|
E|-11--10--9--8--7-6--5--4--3-2-1-0---------|

I got to much time on my hands:
Chorus 3:
e|------------------------------------------|
B|------------------------------------------|
G|------------------------------------------|
D|-13--12--11-10-9-8--7--6--5-4-3-2---------|
A|-13--12--11-10-9-8--7--6--5-4-3-2---------|
E|-11--10--9--8--7-6--5--4--3-2-1-0---------|


Share "Everyday I Die" by Insane Clown Posse


TOP 10 TABS

FRESH NEW TABS

ALL ARTISTS
artist wiki

TabSpace.com / contact us / privacy policy / tabspace toolbar
Copyright 2004 - 2022 TabSpace.com - All Rights Reserved.
song: everyday i die guitar tabs by insane clown posse