:: Guitar & Bass Tabs Make Home Page
A B C D E F G H I J K L M N O P Q R S T U V W X Y Z #

  for    

On TABSPACE
Info About This Tab
Artist: Insane Clown Posse
Tab Type: Bass
Rate This Tab!
-------------------------------------------------------------------------------
			     HALLS OF ILLUSION - ICP
-------------------------------------------------------------------------------

Tabbed By : Bagley
e-mail: xxbagleyxx@gmail.com

Tuning: DADG

Intro/Chorus
G|-------1--0-------|------1--0----------2-----||
D|o-0------------3--|--0--------------3------o-||
A|o-----------------|------------------------o-||
D|------------------|--------------------------||

Verse
G|--------------------------||
D|0-0~~--------------------o||
A|0-------4~~--3~~~--2~~---o||
D|--------------------------||

Heavy Part
G|-------------------------------------------||
D|o-----------------------------------------o||
A|o-------------------------------------0---o||
D|---0~---6--5~---3~----0~---6--5~---3-------||


G|----------------------------------|
D|----------------------------------|
A|------------3~~~~~----------------|
E|----------------------------------|
"Ah, it's time to pack up and move to the next town
 But we forgot Mr. Bigot, okay, dig it"

===============================================================================


Share "Halls Of Illusion" by Insane Clown Posse


TOP 10 TABS

FRESH NEW TABS

ALL ARTISTS
artist wiki

TabSpace.com / contact us / privacy policy / tabspace toolbar
Copyright 2004 - 2022 TabSpace.com - All Rights Reserved.
song: halls of illusion bass tabs by insane clown posse