:: Guitar & Bass Tabs Make Home Page
A B C D E F G H I J K L M N O P Q R S T U V W X Y Z #

  for    

On TABSPACE
Info About This Tab
Artist: Haunted
Tab Type: Bass
Tuning: Half-Step Down
Rate This Tab!
#----------------------------------PLEASE NOTE---------------------------------#
#This file is the author's own work and represents their interpretation of the #
#song. You may only use this file for private study, scholarship, or research. #
#------------------------------------------------------------------------------#

HATE SONG (Bassline)
As recorded by The Haunted
(From the 1998 Album THE HAUNTED)

Transcribed by The Foreverlorn
	

Words and Music by Jensen
Arranged by The Haunted

Gtr I (D# G# C# F#) - 'Untitled'

 Intro
  Q=215
 4/4
  Gtr I
  E Q  E E Q  E   E Q  E E Q  E   E Q  E E Q  E   E Q  E H
|---------------|---------------|---------------|-------------|
|---------------|---------------|---------------|-------------|
|---------------|---------------|---------------|-------------|
|-0-2--0-0-2--0-|-0-2--0-0-3--0-|-0-2--0-0-2--0-|-0-2--0-6----|


  E Q  E E Q  E   E Q  E E Q  E   E Q  E E Q  E   E E E E H
|---------------|---------------|---------------|--------------|
|---------------|---------------|---------------|--------------|
|---------------|---------------|---------------|--------------|
|-0----0-0----0-|-0----0-0----0-|-0----0-0----0-|-6-0-0-0-6----|


   Verse
    E E E E E E E E   E E E E E E E E   E E E E E E E E   E E E E E E E E
||------------------|-----------------|-----------------|------------------|
||o-----------------|-----------------|-------2---------|---2--------------|
||o-----------------|-----------------|-----------------|---------8-7-5-7--|
||--0-0---0-0-0---0-|-0-0---0-0-0---0-|-1-1-1---0-0-3-3-|-3---0-0----------|


  E E E E E E Q    E E E E E E Q    E E E E E E E E   E E E E E E E E
|----------------|----------------|-----------------|------------------||
|----------------|----------------|-----------------|-----------------o||
|---7-----7---7--|---7-----7---7--|-8-8-8-7-----5-5-|-5-2-----3-2-----o||
|-0---0-0---0----|-0---0-0---0----|---------0-0-----|-----0-0-----5-3--||


   Pre-Chorus
    TP TP                 TP
    Q  Q  S S S S Q    Q  Q  S S S S Q
||-------------------|------------------|
||o------------------|------------------|
||o------------------|------------------|
||--2--3--2-2-3-2-5s=|=2--3--2-2-3-2-6s=|


     TP                 TP
  Q  Q  S S S S Q    Q  Q  S S S S E E
|------------------|--------------------||
|------------------|-------------------o||
|------------------|-------------------o||
|-2--3--2-2-3-2-5s=|=2--3--2-2-3-2-6-3--||


 Verse
  E E E E E E E E   E E E E E E E E   Q.   Q.   Q    +E  Q.   E E E E
|-----------------|-----------------|--------------|------------------|
|-----------------|-----------------|--------------|------------------|
|-----------------|-----------------|--------------|----------8-7-5-7-|
|-0-0---0-0-0---0-|-0-0---0-0-0---0-|-1----0----3--|-(3)-0------------|


  E E E E E E Q    E E E E E E Q    E E E E E E E E   E E E E E E E E
|----------------|----------------|-----------------|-----------------|
|----------------|----------------|-----------------|-----------------|
|---7-----7---7--|---7-----7---7--|-8-8-8-7-----5-5-|-5-2-----3-2-----|
|-0---0-0---0----|-0---0-0---0----|---------0-0-----|-----0-0-----5-3-|


   Pre-Chorus
    TP TP                 TP
    Q  Q  S S S S Q    Q  Q  S S S S Q
||-------------------|------------------|
||o------------------|------------------|
||o------------------|------------------|
||--2--3--2-2-3-2-5s=|=2--3--2-2-3-2-6s=|


     TP                 TP
  Q  Q  S S S S Q    Q  Q  S S S S E E
|------------------|--------------------||
|------------------|-------------------o||
|------------------|-------------------o||
|-2--3--2-2-3-2-5s=|=2--3--2-2-3-2-6-3--||


   Chorus
                                      1.
    E Q  E Q  E E   +E  E Q  E E E E   E Q  E Q  E E   +E  E Q  E E E S S
||----------------|------------------|---------------|---------------------||
||o---------------|------------------|---------------|--------------------o||
||o---------------|----------5s8-8-8-|---------------|----------3-2-0-----o||
||--0-0--3-3--6-6-|-(6)-0-0----------|-0-0--3-3--6-6-|-(6)-0-0--------3-2--||


                        Break
  2.
 3/4                    4/4
  E Q  E Q    E E H      W          +W
|-----------|----------|----------|--------|
|-----------|----------|----------|--------|
|-----------|----------|----------|--------|
|-0-0--3-3--|-0-0------|-0--------|-(0)----|


  E E E E E E Q    E E E E E E Q      Q   Q   Q   Q     Q  Q  Q  Q
|----------------|----------------|------------------|--------------|
|----------------|----------------|------------------|--------------|
|---7-----7---7--|---7-----7---7--|-/10--10--10--10--|--------------|
|-0---0-0---0----|-0---0-0---0----|------------------|-/3--3--3--3--|


 Verse
  W          +W           E E E E E E E E   E E E E E E E E
|----------|------------|-----------------|-----------------|
|----------|------------|-------2---------|---2-------------|
|----------|------------|-----------------|---------8-7-5-7-|
|-0--------|-(0)--------|-1-1-1---0-0-3-3-|-3---0-0---------|


  E E E E E E Q    E E E E E E Q    E E E E E E E E   E E E E E E E E
|----------------|----------------|-----------------|-----------------|
|----------------|----------------|-----------------|-----------------|
|---7-----7---7--|---7-----7---7--|-8-8-8-7-----5-5-|-5-2-----3-2-----|
|-0---0-0---0----|-0---0-0---0----|---------0-0-----|-----0-0-----5-3-|


  E E E E E E E E   E E E E E E E E   E E E E E E E E   E E E E E E E E
|-----------------|-----------------|-----------------|-----------------|
|-----------------|-----------------|-------2---------|---2-------------|
|-----------------|-----------------|-----------------|---------8-7-5-7-|
|-0-0---0-0-0---0-|-0-0---0-0-0---0-|-1-1-1---0-0-3-3-|-3---0-0---------|


  E E E E E E Q    E E E E E E Q    E E E E E E E E   E E E E E E E E
|----------------|----------------|-----------------|-----------------|
|----------------|----------------|-----------------|-----------------|
|---7-----7---7--|---7-----7---7--|-8-8-8-7-----5-5-|-5-2-----3-2-----|
|-0---0-0---0----|-0---0-0---0----|---------0-0-----|-----0-0-----5-3-|


   Pre-Chorus
    TP TP                 TP
    Q  Q  S S S S Q    Q  Q  S S S S Q
||-------------------|------------------|
||o------------------|------------------|
||o------------------|------------------|
||--2--3--2-2-3-2-5s=|=2--3--2-2-3-2-6s=|


     TP                 TP
  Q  Q  S S S S Q    Q  Q  S S S S E E
|------------------|--------------------||
|------------------|-------------------o||
|------------------|-------------------o||
|-2--3--2-2-3-2-5s=|=2--3--2-2-3-2-6-3--||


   Chorus
                                      1.
    E Q  E Q  E E   +E  E Q  E E E E   E Q  E Q  E E   +E  E Q  E E E S S
||----------------|------------------|---------------|---------------------||
||o---------------|------------------|---------------|--------------------o||
||o---------------|----------5s8-8-8-|---------------|----------3-2-0-----o||
||--0-0--3-3--6-6-|-(6)-0-0----------|-0-0--3-3--6-6-|-(6)-0-0--------3-2--||


  2.
 3/4
  E Q  E Q    E Q  E Q    E Q  E E E
|-----------|-----------|------------|
|-----------|-----------|------------|
|-----------|-----------|------------|
|-0-0--3-3--|-0-0--3-3--|-0-0--0-1-2-|


   Interlude
   4/4
    E E E E E E E E   E E E E E E E E
||------------------|-----------------|
||o---5-----4-------|-----------------|
||o-------------6---|-5---4-----------|
||--3---3-3---3---3-|---3---3-6-3-5-4-|


                                       2/4
  E E E E E E E E   E E E E E E E E  4x E E E E
|-----------------|------------------||---------|
|---5-----4-------|-----------------o||---------|
|-------------6---|-5---4---4-4-4-4-o||-4-4-4-4-|
|-3---3-3---3---3-|---3---3----------||---------|


   4/4
    E E E E E E E E   E E E E E E E E   E E E E E E E E   E E E E E E E E
||------------------|-----------------|-----------------|-------------------||
||o---5-----4-------|-----------------|---5-----4-------|------------------o||
||o-------------6---|-5---4-----------|-------------6---|-5---4---4-4-4-4--o||
||--3---3-3---3---3-|---3---3-6-3-5-4-|-3---3-3---3---3-|---3---3-----------||


   Guitar Solo
   3/4
    E E E E E E   E E E E E E   E E E E E E   E E E E E E
||--------------|-------------|-------------|-------------|
||o-------------|-------------|-------------|-------------|
||o-------------|-------0-----|-------------|-------0-----|
||--2-2-2-3-2-0-|-2-2-2---2-0-|-2-2-2-3-2-0-|-2-2-2---2-0-|


 4/4
  E E E E S S E +E  E   E E E E S S E +E  E
|---------------------|---------------------|
|---------------------|---------------------|
|-2-2-0-2-0-2-3-(3)-3-|-2-2-0-2-0-2-3-(3)-3-|
|---------------------|---------------------|


                       1.
  E E E E S S E +E  E   E E E E S S E +E  E
|---------------------|-----------------------||
|---------------------|----------------------o||
|-2-2-0-2-0-2-3-(3)-3-|-2-2-0-2-0-2-3-(3)-3--o||
|---------------------|-----------------------||


  2.
                                                       2/4
  E E E E H      +W           +W           +W           +H
|--------------|------------|------------|------------|--------|
|--------------|------------|------------|------------|--------|
|-2-2-0-2-3----|-(3)--------|-(3)--------|-(3)--------|-(3)----|
|--------------|------------|------------|------------|--------|


 Outro
 4/4
  E E E E E E E E   E E E E E E E E   E E E E E E E E   E E E E S S S S E E
|-----------------|-----------------|-----------------|---------------------|
|-----------------|-----------------|-----------------|---------------------|
|-----------------|-----------------|-----------------|---------------------|
|-0-0---0-0-0---0-|-0-0---0-0-0---0-|-0-0---0-0-0---0-|-0-0---0-6-5-3-0-5-6-|


  E E E E E E E E   E E E E S S S S E E
|-----------------|---------------------|
|-----------------|---------------------|
|-----------------|---------------------|
|-0-0---0-0-0---0-|-0-0---0-6-5-3-0-5-6-|


  E E E E E E E E   S S S S E E S S S S E E
|-----------------|-------------------------|
|-----------------|-------------------------|
|-----------------|-------------------------|
|-0-0---0-0-0---0-|-6-5-3-0-5-6-8-6-3-0-5-6-|


  E E E E S S S S E E   E E E E S S S S E E   E E E E S S S S E E
|---------------------|---------------------|----------------------|
|---------------------|---------------------|----------------------|
|---------------------|---------------------|----------------------|
|-0-0---0-6-5-3-0-5-6-|-0-0---0-6-5-3-0-5-6-|-0-0---0-6-5-3-0-5-6--|


  E E E E H      E E E E S S S S E E
|--------------|---------------------|
|--------------|---------------------|
|--------------|---------------------|
|-0-0---0-6----|-0-0---0-6-5-3-0-5-6-|


  E E E E S S S S E E   E E E E S S S S E E
|---------------------|---------------------|
|---------------------|---------------------|
|---------------------|---------------------|
|-0-0---0-6-5-3-0-5-6-|-0-0---0-6-5-3-0-5-6-|


  E E E E Q  Q    E E E E E E E E   E E E E E E E E   E E E E E E E E
|---------------|-----------------|-----------------|-----------------|
|---------------|-----------------|-----------------|-----------------|
|---------------|-----------------|-----------------|-----------------|
|-0-0---0-3--2--|-0-0---0-1-0-3-2-|-0-0---0-1-0-6-5-|-0-0---0-1-0-3-2-|


  E E E E E E Q    E E E E E E Q    E E E E E E Q    E E E E E E Q
|----------------|----------------|----------------|----------------|
|----------------|----------------|----------------|----------------|
|-------------1--|----------------|----------------|----------------|
|-0-0---0-1-0----|-0-0---0-1-0-3--|-0-0---0-1-0-6--|-0-0---0-1-0-3--|


  E E E E E E E E   E H..
|-----------------|----------*|
|-----------------|----------*|
|-------------1-3-|----------*|
|-0-0-6-5-0-0-----|-0--------*|



Duration Legend
---------------
W - whole; H - half; Q - quarter; E - 8th; S - 16th; T - 32nd; X - 64th; a - acciaccatura
+ - note tied to previous; . - note dotted; .. - note double dotted
Uncapitalized letters represent notes that are staccato (1/2 duration)
Irregular groupings are notated above the duration line
Duration letters will always appear directly above the note/fret number it represents the
duration for.  Duration letters with no fret number below them represent rests.  Multi-
bar rests are notated in the form Wxn, where n is the number of bars to rest for.  Low
melody durations appear below the staff

Tablature Legend
----------------
 h   - hammer-on
 p   - pull-off
 b   - bend
 pb  - pre-bend
 r   - bend release (if no number after the r, then release immediately)
 /\  - slide into or out of (from/to "nowhere")
 s   - legato slide
 S   - shift slide
 - natural harmonic
[n]  - artificial harmonic
n(n) - tapped harmonic
 ~   - vibrato
 tr  - trill
 T   - tap
 TP  - trem. picking
 PM  - palm muting
\n/  - tremolo bar dip; n = amount to dip
 \n  - tremolo bar down
 n/  - tremolo bar up
/n\  - tremolo bar inverted dip
 =   - hold bend; also acts as connecting device for hammers/pulls
 <> - volume swell (louder/softer)
 x   - on rhythm slash represents muted slash
 o   - on rhythm slash represents single note slash

Misc Legend
-----------
 |  - bar
||  - double bar
||o - repeat start
o|| - repeat end
*|  - double bar (ending)
 :  - bar (freetime)
 $  - Segno
 &  - Coda
Tempo markers -  = BPM(8/16=s8/s16), where s8 = swing 8ths, s16 = swing 16ths




Share "Hate Song" by Haunted


TOP 10 TABS

FRESH NEW TABS

ALL ARTISTS
artist wiki

TabSpace.com / contact us / privacy policy / tabspace toolbar
Copyright 2004 - 2022 TabSpace.com - All Rights Reserved.
song: hate song bass tabs by haunted