:: Guitar & Bass Tabs Make Home Page
A B C D E F G H I J K L M N O P Q R S T U V W X Y Z #

  for    

On TABSPACE
Info About This Tab
Artist: Haunted
Tab Type: Guitar
Rate This Tab!
Band- Haunted
Song- Head

Tuning; One Whole Step Down, D,G,C,F,A,D

Intro Riff
|-------------------------------------------------------|
|-------------------------------------------------------|
|-------------------------------------------------------|
|-----------5----tr-----------------5-----tr----ph------|
|---------------5757---8---7--10---------5757---7~~~~---|
|--12\\\-----00------6--66--6----00---00------0---------|
             ..      .  ..  .    ..   ..      .
Guitar 1 (Riff #1)
|-----------------------------------------------------------------|
|-----------------------------------------------------------------|
|-----------------------------------------------------------------|
|--5----tr-----------------5----tr---------------5----tr----------|
|------5757---8---7--10--------5757--5---8--7--------5757-8--3--2-|
|---00------6--66--6----00--00--------44--4---00--00------6--1--0-|
    ..      .  ..  .    ..  ..        ..  .   ..  ..
Guitar 2
|-----------------------------------------------------------------|
|-----------------------------------------------------------------|
|-----------------------------------------------------------------|
|-----------------------------------------------------------------|
|--2--------8----------3--2-2--------6-6---------2--------8--3--2-|
|-\0--------6----------1--0-0--------4-4---------0--------6--1--0-|

Play Riff #1 twice, but second time, end with (and thats Riff#1 throughout)
|------------|
|------------|
|------------|
|-7----7/10--|
|-5----5/8---|
|---00-------|
    ..
Riff#2
|-----------------------------------------|
|-----------------------------------------|
|-----------------------------------------|
|------------------5-5-----------------4--|
|--4---3-3-------------4---3-3---h--3-----|
|---222-2-22-532023-3---222-2-223-5--5--3~|
    ... . .. ...... .  ... . ..
Riff#3
|-------------------------------------|
|-------------------------------------|
|-------------------------------------|
|--5--------5--------5----------------|
|------5-7------5-7------5-7--22-222--|
|---00-------00-------00------00-000--|
    ..       ..       ..

Riffs #1 and #2 again
Pre-Chorus
|-----------------------------------------------|
|-----------------------------------------------|
|-----------------------------------------------|
|-----------------------------------------------|
|--7---5-7-8--7/8-10--8/10-11---7---5--7---8888-|
|---00--0-0-0-------0---------00--0--0---5------|
    ..  . . .       .         ..  .  .   .

|------------------------------------------|
|------------------------------------------|
|------------------------------------------|
|------------------------------------------|
|--7---5-7-8--7/8-10--8/10-11-2------------|
|---00--0-0-0-------0---------0---77776655-|
    ..  . . .       .         .

Chorus
|----------------------------------------------|
|----------------------------------------------|
|-------------5--------------------------------|
|---------------h---h-p--------------4-4-5-5---|GTR.1
|--7---5-7-8---7-8-7-8-5--7---5-7-8--2-2-3-3---|
|---0-0-0-0-0-----0-----0--0-0-0-0-------------|

|----------------------------------------------|
|----------------------------------------------|
|----------------------------------------------|
|----------------------------------------------|GTR.2
|--2----------3----------2--------3------6-----|
|--0----------1----------0--------1------4-----|

|--------------------------------------------|
|--------------------------------------------|
|-------------5------------------------------|
|---------------h---h-p----------------------|GTR.1
|--7---5-7-8---7-8-7-8-5--7---5-7-8----------|
|---0-0-0-0-0-----0-----0--0-0-0-0---7776655-|

|--------------------------------------------|
|--------------------------------------------|
|--------------------------------------------|
|--------------------------------------------|GTR.2
|--2----------3----------2-----------9998877-|
|--0----------1----------0-----------7776655-|

Then Riff #3
Then Riff #1
Then Riff #2
Pre-Chorus
Chorus


Bridge
Riff A
|----------------------------------------------|
|----------------------------------------------|
|----------------------------------------------|
|--4----------3-----------3-5--------3--hp-----|
|--2----------1-----------1-3--------1-010-0---|
|---0-0-3-0-0---0-0-0-0-0----0-0-0-3------3-31-|
    . . . . .   . . . . .    . . . . .

|------------------------------------------------|
|------------------------------------------------|
|------------------------------------------------|
|--4----------3-----------3-5---------5-7-7-10-10|
|--2----------1-----------1-3---------3-5-5--8--8|
|---0-0-3-0-0---0-0-0-0-0-----0-0-0-0------------|
    . . . . .   . . . . .

Riff B
|----------------------------------------------------|
|----------------------------------------------------|
|-----------------------------------p----------------|
|--9---------7-------10---------9--87---7------------|
|--7---------5--------8---------7----10--10-8-7-8-10-|
|----0-0-0-7--0-0-0-7--0-0-0-7-----------------------|
     . . . .  . . . .  . . . .
Repeat with E chord ending second time.
Then Both Riffs A and B again.
Then Riff #3 Twice
Then Riff #2
Then Pre-Chorus and Chorus
Very last riff isn't that hard. If you can play the rest of the
song, you should be able to figure it out.





Share "Head" by Haunted


TOP 10 TABS

FRESH NEW TABS

ALL ARTISTS
artist wiki

TabSpace.com / contact us / privacy policy / tabspace toolbar
Copyright 2004 - 2022 TabSpace.com - All Rights Reserved.
song: head guitar tabs by haunted