:: Guitar & Bass Tabs Make Home Page
A B C D E F G H I J K L M N O P Q R S T U V W X Y Z #

  for    

On TABSPACE
Info About This Tab
Artist: Azra
Tab Type: Bass
Difficulty: intermediate
Rate This Tab!
AZRA - Lijepe zene prolaze kroz grad

tabbed by ranchilio


Intro:

G-----------------------4-2----------------------------------|
D-----------------5--4-------5--4-------5--------------------|
A--7--7-----5--7---------------------7--------5--7-----5-----|
E--------7---------------------------------5--------7--------|


Verse:

G----------------------------------------------------------------------------|
D----------------5--4-----5--4-------------5-------------5-----------5--4----|
A---7------5--7--------3-----------5---3---------5--7h5--------5--7----------|
E------7-----------------------7--------------5------------7-----------------|


G------------------------------------------------------------------------|
D----------------------5--4-----5--4-----------5------------5------------|
A-7-----5--7-----5--7--------3-----------5--3---------5--7--------5--7---|
E----7--------7-----------------------7------------5-----------7---------|


Chorus:


-9--7-------------------------------------------------------------------------------|
-------9--6--7-----------5--5-----------7----------5--5-----------7-----------5--5--|
----------------5--5--7--------7--5--7-----5--5--7-------7--5--7-----5--5--7--------|
------------------------------------------------------------------------------------|


-------5----------------9-8-7-----------9----------9--8--7--------9--7-------------|
-------------5------7---------5-----5-----5-----7----------5-----------9--7--5-----|
-7--7------5------7--------------7-----------7----------------7-----------------7--|
-----------------------------------------------------------------------------------|


Verse:


G-----------------4-2----------------------------------|
D-----------5--4-------5--4-------5--------------------|
A-----5--7---------------------7--------5--7-----5--7--|
E--7---------------------------------5--------7--------|


Chorus:


-9--7-------------------------------------------------------------------------------|
-------9--6--7-----------5--5-----------7----------5--5-----------7-----------5--5--|
----------------5--5--7--------7--5--7-----5--5--7-------7--5--7-----5--5--7--------|
------------------------------------------------------------------------------------|


-------------------------9-8-7-----------9----------9--8--7--------9--7-------------|
------10-----5--5----7---------5-----5-----5-----7----------5-----------9--7--5-----|
-7--7------5-------7--------------7-----------7----------------7-----------------7--|
------------------------------------------------------------------------------------|


Share "Lijepe Zene Prolaze Kroz Grad" by Azra


TOP 10 TABS

FRESH NEW TABS

ALL ARTISTS
artist wiki

TabSpace.com / contact us / privacy policy / tabspace toolbar
Copyright 2004 - 2022 TabSpace.com - All Rights Reserved.
song: lijepe zene prolaze kroz grad bass tabs by azra