:: Guitar & Bass Tabs Make Home Page
A B C D E F G H I J K L M N O P Q R S T U V W X Y Z #

  for    

On TABSPACE
Info About This Tab
Artist: Kasabian
Tab Type: Guitar
Difficulty: intermediate
Rate This Tab!
Song : Me Plus One
Artist : Kasabian
Album : Empire
Tabber : FreedomFighter
I'm back again with a new tab on request.

Another song off the brilliant new record by Kasabian.
I'll transcribe the synth parts and the violin parts too.

Intro :
e---------------------|
B---------------------|
G--9-9--9-9--9-9--9-9-|
D--7-7--7-7--7-7--7-7-|
A---------------------|
E---------------------|x3

Verse:
e---------------------|
B---------------------|
G------5--4--2--------|
D---5-----------------|
A---------------------|
E---------------------|

e---------------------|
B---------------------|
G--9-9--9-9--9-9--9-9-|
D--7-7--7-7--7-7--7-7-|
A---------------------|

e---------------------|
B---------------------|
G------5/7------------|
D---5-------7---------|
A---------------------|
E---------------------|

e---------------------|
B---------------------|
G--9-9--9-9--9-9--9-9-|
D--7-7--7-7--7-7--7-7-|
A---------------------|
E---------------------|
E---------------------|
It does the whole thing twice.
Before going into

Chorus
"You can't ta-ke me aw-ay"
e----------------------|
B----------------------|
G--12-11---------------|
D--------9-9-9h11------|
A----------------------|
E----------------------|
This includes the "Love, love" bit.

Verse 2
"She comes back for the winter"
e---------------------|
B---------------------|
G------5--4--2--------|
D---5-----------------|
A---------------------|
E---------------------|

e---------------------|
B---------------------|
G--9-9--9-9--9-9--9-9-|
D--7-7--7-7--7-7--7-7-|
A---------------------|

e---------------------|
B---------------------|
G------5/7------------|
D---5-------7---------|
A---------------------|
E---------------------|

e---------------------|
B---------------------|
G--9-9--9-9--9-9--9-9-|
D--7-7--7-7--7-7--7-7-|
A---------------------|
E---------------------|
E---------------------|

Chorus 2
e----------------------|
B----------------------|
G--12-11---------------|
D--------9-9-9h11------|
A----------------------|
E----------------------|

Violin part:
e-15h17p15-/-14h15p14----|--12h14p12-/-10h12p10--|--9h10p9-------|
B------------------------|-----------------------|---------10/12-|
I recommend slowing this part down substancially and then playing. It is difficult to 
it up to speed with the record and it may not sound exactly the same. But it the closest I 
get to it on guitar.

This then continues till the end of the song.

Enjoy. Any comments or suggestions are appreciated.


Share "Me Plus One" by Kasabian


TOP 10 TABS

FRESH NEW TABS

ALL ARTISTS
artist wiki

TabSpace.com / contact us / privacy policy / tabspace toolbar
Copyright 2004 - 2022 TabSpace.com - All Rights Reserved.
song: me plus one guitar tabs by kasabian