:: Guitar & Bass Tabs Make Home Page
A B C D E F G H I J K L M N O P Q R S T U V W X Y Z #

  for    

On TABSPACE
Info About This Tab
Artist: Azra
Tab Type: Guitar
Rate This Tab!
Intro:
E------10-7---||----3-2-----|
B-----7---10--||---3---3----|
G----7-----7--||--2-----2---|
D---7---------||-0----------|
A-------------||------------|
E-------------||------------|

E-----10-7----||----3-2-----|
B-----7---10--||---3---3----|
G----7-----7--||--2-----2---|
D---7---------||-0----------|
A-------------||------------|
E-------------||------------|
               _ _ 
Pa ide prelaz C G D  x2 pa opet

E-----10-7----|
B-----7---10--|
G----7-----7--|
D---7---------|
A-------------|
E-------------|

G  A        D            Bm
Ne prodajem nasmijesenog psa 
G      A     D 
Zaboravi na to
G    A      D          Bm
Dan ranije,secuci kroz park
      Em    A   D
On me upoznao s njom

Am   D     G   Em
Malo srece ponekad
  C    F       D
Igrao sam crveno
Am     D  Bm     Em 
Zeton kao sladoled
  Fmaj7    C      D  G
Lijepio se za moj stol

solo (akordi kao u prvoj strofi)

F      C        G
negdje ispod u toplom flanelu slika
F	 C	G
zelis li crnu ljubav
F	 C	  G
barska dama s kosom od zlata
	F   C  B7 E
jutro lopvska noc



Share "Ne Prodajem Nasmijesenog Psa" by Azra


TOP 10 TABS

FRESH NEW TABS

ALL ARTISTS
artist wiki

TabSpace.com / contact us / privacy policy / tabspace toolbar
Copyright 2004 - 2022 TabSpace.com - All Rights Reserved.
song: ne prodajem nasmijesenog psa guitar tabs by azra