:: Guitar & Bass Tabs Make Home Page
A B C D E F G H I J K L M N O P Q R S T U V W X Y Z #

  for    

On TABSPACE
Info About This Tab
Artist: Kasabian
Tab Type: Guitar
Rate This Tab!
Ovary Stripe - Kasabian

Tuning: Standard


Part 1 (mainly synth. Synths tabbed for guitar)

Repeat until guitar comes in

e|--3--2--0--2--3--3--2--0--2--3--3--2--0--2--3--3--2--0--2--3---|
B|---------------------------------------------------------------|
G|---------------------------------------------------------------|
D|---------------------------------------------------------------|
A|---------------------------------------------------------------|
E|---------------------------------------------------------------|


Part 2


e|---3p2p0-3p2p0-3p2p0---0---3p2p0-3p2p0-3p2p0---0---3p2p0-3p2p0-3p2p0---0-|
B|---------------------3-----------------------3-----------------------3---|
G|-------------------------------------------------------------------------|
D|-------------------------------------------------------------------------|
A|-------------------------------------------------------------------------|
E|-------------------------------------------------------------------------|

e|---3p2p0-3p2p0-3p2p0---0-----------3p2p0---10p9p7-(7)-(7)-(7)---------|
B|---------------------3------3p2p0-------------------------------------|
G|----------------------------------------------------------------------|
D|----------------------------------------------------------------------|
A|----------------------------------------------------------------------|
E|----------------------------------------------------------------------|

e|---3p2p0-3p2p0-3p2p0---0---3p2p0-3p2p0-3p2p0---0-----------------------|
B|---------------------3-----------------------3-------------------------|
G|-----------------------------------------------------------------------|
D|-----------------------------------------------------------------------|
A|-----------------------------------------------------9-9-9-9-9-9-9-9---|
E|-----------------------------------------------------7-7-7-7-7-7-7-7---|


Part 3

Repeat x3

e|---3p2p0-3p2p0-3p2p0---0---3p2p0-3p2p0-3p2p0---0-------3p2p0---10p9p7---|
B|---------------------3-----------------------3----3p2p0-----------------|
G|------------------------------------------------------------------------|
D|------------------------------------------------------------------------|
A|------------------------------------------------------------------------|
E|------------------------------------------------------------------------|


Part 4


e|---3-2-0-2-5-3-2--0----------2-3-2-0-3-2-5-2---|
B|-----------------------------------------------|
G|-----------------------------------------------|
D|-----------------------------------------------|
A|-----------------------------------------------|
E|-----------------------------------------------|


Part 5


e|---3p2p0-3p2p0-3p2p0---0---3p2p0-3p2p0-3p2p0---0-------3p2p0---10p9p7---|
B|---------------------3-----------------------3----3p2p0-----------------|
G|------------------------------------------------------------------------|
D|------------------------------------------------------------------------|
A|------------------------------------------------------------------------|
E|------------------------------------------------------------------------|


Part 6 (Repeat until end of song. Synths tabbed for guitar)


e|---5-3-5-3-2-3---0--|
B|---------------3----|
G|--------------------|
D|--------------------|
A|--------------------|
E|--------------------|



Share "Ovary Stripe" by Kasabian


TOP 10 TABS

FRESH NEW TABS

ALL ARTISTS
artist wiki

TabSpace.com / contact us / privacy policy / tabspace toolbar
Copyright 2004 - 2022 TabSpace.com - All Rights Reserved.
song: ovary stripe guitar tabs by kasabian