:: Guitar & Bass Tabs Make Home Page
A B C D E F G H I J K L M N O P Q R S T U V W X Y Z #

  for    

On TABSPACE
Info About This Tab
Artist: Kasabian
Tab Type: Bass
Difficulty: novice
Rate This Tab!
------------------------------------------------------------------------------
			     Shoot The Runner - Kasabian
-------------------------------------------------------------------------------

Tabbed By : Tom (Tomnthegang)
e-mail: eat.tom@gmail.com

Tuning: Standard EADG

I think this is pitched to high, but by looking at the video, I can see roughly what 
the bassist uses. Hopefully It's about right.

Intro (Very basic)

G -------------------------------------------------------------------|
D -7--7--7--7--7--7--7--7--7--7--7--7--7--7--7--7--------------------|
A -------------------------------------------------------------------|
E -------------------------------------------------------------------|

Main
(You play this once before the vocals kick in, then 5x during)

Shoot the runner. Shoot shoot the runner... I'm the king and she's my queen
G --------------------------------------------------------------------|
D -5-7--7--7--7-5-7--7--7--7------------------------------------------|
A ---------------------------5-7--7--7--7-5-7--7--3--5----------------|
E --------------------------------------------------------------------| x 6


Main part 2
 [1]                        [2]
G -------5-----7--5---------|-------5-----7--5------------------------|
D -5--7-----7--------7-5--7-|-5--7-----7--------7-5--7----------------|
A --------------------------|---------------------------7---5---3---2-|
E --------------------------|-----------------------------------------|

then it goes:


Main     x 6

main 2nd
[Pause 2.00 to 2.10]
main x 8

main 2nd [1] x 2

main 2nd [2]

This is my first tab guys. I only started playing the bass a month ago, which, may I add 
my first instrument. Please leave feedback. I'd love to know how I've done.


Share "Shoot The Runner" by Kasabian


TOP 10 TABS

FRESH NEW TABS

ALL ARTISTS
artist wiki

TabSpace.com / contact us / privacy policy / tabspace toolbar
Copyright 2004 - 2022 TabSpace.com - All Rights Reserved.
song: shoot the runner bass tabs by kasabian