:: Guitar & Bass Tabs Make Home Page
A B C D E F G H I J K L M N O P Q R S T U V W X Y Z #

  for    

On TABSPACE
Info About This Tab
Artist: Kasabian
Tab Type: Guitar
Difficulty: intermediate
Rate This Tab!
standard tuning.. wiht a load of deep bassyness

or could be played in drop D to get a deeper sound

imo best song from new album :)

out 28th August, unless u downloaded it already :$

anyways..[cough]

intro 

|--------------|    |---------|
|--------------|    |---------|
|--------------| or |---------| this works best if playing in drop D
|--------------|    |---------|
|-12-12-12-12--|    |---------|
|--------------|    |-5-5-5-5-| 

main riff
|---------------------------------------------|
|---------------------------------------------|
|---------------------------------------------|
|---------------------------------------------|
|-10-12-12-12-10-12-12-12-5-7-7-7-5-7-7-7-3-2-|
|---------------------------------------------|

if ur playing in drop D just octave it up a string aka open for 10 etc etc
then in the airy "ahhhhh" bit these chords come in

|-----------------------------------------|
|-----------------------------------------|
|-14-14-14-14-14-14-14-14-9-9-9-9-9-9-9-9-|
|-14-14-14-14-14-14-14-14-9-9-9-9-9-9-9-9-|
|-12-12-12-12-12-12-12-12-7-7-7-7-7-7-7-7-|
|-----------------------------------------|
thats for both drop D and standard

then this cool riff comes in
standard:
|-------------------------|
|-------------------------|
|-------------------------|
|------10----12-10--------|
|-10-12---12-------10-12--|
|-------------------------|
drop D
|-----------------|
|-----------------|
|-----------------|
|-----------------|
|-----3---5-3-----|
|-3-5---5-----3-5-|

then theres loads of little guitar fills which
are mainly just these notes bent and improvised in the
scales of Em pent [12th fret] and Bm pent [19th fret]

|-------------------------------------------------|
|-------------------------------------------------|
|-14-14-14-14-14-14-14-14-21-21-21-21-21-21-21-21-|
|-------------------------------------------------|
|-------------------------------------------------|
|-------------------------------------------------|


well thats pretty much it, a lot is improvised but its all good :)


Ethan


Share "Shoot The Runner" by Kasabian


TOP 10 TABS

FRESH NEW TABS

ALL ARTISTS
artist wiki

TabSpace.com / contact us / privacy policy / tabspace toolbar
Copyright 2004 - 2022 TabSpace.com - All Rights Reserved.
song: shoot the runner guitar tabs by kasabian