:: Guitar & Bass Tabs Make Home Page
A B C D E F G H I J K L M N O P Q R S T U V W X Y Z #

  for    

On TABSPACE
Info About This Tab
Artist: Kalashnikov
Tab Type: Guitar
Rate This Tab!
-------------------------------------------------------------------------------
			     Sniper - Kalashnikov
-------------------------------------------------------------------------------
Tabbed by:Antonio23
Email:antonio.flavio.af@hotmail.com

Tuning:Standart

riff 1
E----------------------------------------------------------------|
B----------------------------------------------------------------|
G-----7h9-------------7h9-------------7h9------------------------|
D--------7h9-7h9---------7h9-7h9---------7h9-7h9-------5---4-----|  X2
A------------------------------------------------------5---4-----|
E-0-X8-----------0-X8------------0-X8------------0-X8--3---2-----|
  *              *               *               *

riff2
E-----------------------|
B-----------------------|
G-----------------------|
D-----------------5--4--|  X4
A-----5h7-----5h7-5--4--|
E-0-0-----0-0-----3--2--|


riff1


riff2


E-----------------------    --------------------------|
B-----------------------    --------------------------|
G-----5--7--------------    ----5--7------------------|
D--2--5--7-------------- X3 -2--5--7------------------| X4
A--2--3--5------5----5--    -2--3--5------------------|
E--0---------5h7--5h7---    -0---------3h5-5-5-3p0----|

E------------------------------------------|
B------------------------------------------|
G------------------------------------------|
D--2----3-0h2----3-0h2----3-0h2----5-4-----| X2
A--2----3-0h2----3-0h2----3-0h2----5-4-----|
E--0----1---0----1---0----1---0----3-2-----|


riff1


riff2


E----------------------------------|
B----------------------------------|
G----------------------------------|
D----------------------------------| X8
A----------------------------------|
E-0-0-0-0-0-0-0-0-5-6-0-3-5-0-1-3--|


riff2


E-------------------------|
B-------------------------|
G-----------------3-3-----|
D--2-2--3-3--4-4--3-3--2--|
A--2-2--3-3--4-4--1-1--2--|
E--0-0--1-1--2-2-------0--|

| /  slide up
| \  slide down
| h  hammer-on
| p  pull-off
| ~  vibrato
| +  harmonic
| x  Mute note
| *  Palm mute ===============================================================================


Share "Sniper" by Kalashnikov


TOP 10 TABS

FRESH NEW TABS

ALL ARTISTS
artist wiki

TabSpace.com / contact us / privacy policy / tabspace toolbar
Copyright 2004 - 2022 TabSpace.com - All Rights Reserved.
song: sniper guitar tabs by kalashnikov