:: Guitar & Bass Tabs Make Home Page
A B C D E F G H I J K L M N O P Q R S T U V W X Y Z #

  for    

On TABSPACE
Info About This Tab
Artist: Brandi Carlile
Tab Type: Guitar
Difficulty: intermediate
Rate This Tab!
e|-0--5--7---9-9--|-9-5---0-0------|-s9-7--5--7-7---|-4--0-0---------|
B|----------------|------------3-2-|----------------|---------3--0---|
G|----------------|----------------|----------------|----------------|
D|----------------|----------------|----------------|----------------|
A|----------------|----------------|----------------|----------------|
E|----------------|----------------|----------------|----------------|

e|-s7-5-4----5-5--|-2--------------|-2-4--5-5----2--|----------------|
B|----------------|----2-2----0----|----------------|-3--3-----------|
G|----------------|-------------2--|----------------|------2---------|
D|----------------|----------------|----------------|-----------4----|
A|----------------|----------------|----------------|----------------|
E|----------------|----------------|----------------|----------------|


Share "Story Solo" by Brandi Carlile


TOP 10 TABS

FRESH NEW TABS

ALL ARTISTS
artist wiki

TabSpace.com / contact us / privacy policy / tabspace toolbar
Copyright 2004 - 2022 TabSpace.com - All Rights Reserved.
song: story solo guitar tabs by brandi carlile