:: Guitar & Bass Tabs Make Home Page
A B C D E F G H I J K L M N O P Q R S T U V W X Y Z #

  for    

On TABSPACE
Info About This Tab
Artist: Leaf Hound
Tab Type: Guitar
Difficulty: novice
Rate This Tab!
http://www.leafhound.net/ that's their homepage.

This is my first tab so don't tear me apart please.


This is a pretty easy, but really good song, i haven't figured out the solo or the 
breakdown part yet but it's in the key of A so shouldn't be too hard to figure it out.

intro/chorus

e-----------------------|
b-----------------------|
g--99999----77777-------|
d--99999----77777---7-5-|
a--77777----55555---7-5-|
e-------------------5-3-|


Verse

e----------------|
b----------------|
g----------------|
d-----5----------|
a--777-5-5-----5-|
e---------5-5-8--|


Share "Stray" by Leaf Hound


TOP 10 TABS

FRESH NEW TABS

ALL ARTISTS
artist wiki

TabSpace.com / contact us / privacy policy / tabspace toolbar
Copyright 2004 - 2022 TabSpace.com - All Rights Reserved.
song: stray guitar tabs by leaf hound