:: Guitar & Bass Tabs Make Home Page
A B C D E F G H I J K L M N O P Q R S T U V W X Y Z #

  for    

On TABSPACE
Info About This Tab
Artist: Haunted
Tab Type: Bass
Rate This Tab!
Band- Haunted
Song- Undead

|-------------------------------------------------------|
|-------------------------------------------------------|	
|-------------------------------------------------------|
|----------------------------------------5--------------|

  Riff A
|-------------------------------------------------------|
|-------------------------8p7---------------------------|
|-5h8----5h7----5h8----5h7----5h8----5h7-----7----------|   x2
|-----0-0----0-0----0-0-----------0-0----0-0---0-00-000-|
     
 
Repeat A

  Riff B (Verse)
|---------------------------------------------------|
|---------------------------------------------------|
|-5h7----5h8----5h7-------------5h7----5h8----------|   x2
|-----0-0----0-0----0-0-0-0-0-0-----0-0----0-00-000-|


Riff C (chorus)
|-------------------------------------------------------------|
|-------------------------------------------------------------|
|-------------------------3------------------------------3----|   x2
|-5---2---1---2---5---2-------2---5---2---1---2---5---2---202-|

Repeat C
Repeat A X2
Repeat B X2
Repeat C X2

Fill
|-------------|
|-------------|
|-------------|
|--3034-70-60-|

Riff D
|--------------------|---------------------|
|--------------------|---------------------|
|--------------------|---------------14141-|   x2
|-3000-3000-3000-3-4-|-3000-3000-303-------|


Riff E
|-----------------------------------------------------------------|
|-----------------------------------------------------------------|
|--------------------------------414141---------------------------| x2 (under the solo the second time)
|-3-00-3-00-3-00-3-4-3-00-3-00-3--------3-00-3-00-3-00-3-4-2--1---|


Rest of solo
|-------------------------------------|
|-------------------------------------|
|-------------------------------------|
|-22222222-22222222-22222222-22222222-|

|-------------------------------------|
|-------------------------------------|
|-------------------------------------|
|-5--------5--------------------------|

|-------------------------------------|
|-------------------------------------|
|-------------------------------------|
|-22222222-22222222-22222222-22222222-|

|-------------------------------------|
|-------------------------------------|
|-------------------------------------|
|-5----555-5----555-5----555-5----555-|

Bridge to verse
|-----------------------------------------|
|-----------------------------------------|
|-----------------------------------------|
|-5---4--1--6-5----5---4--1--6-5----6-----|
	      .

Repeat B X2
Repeat C X2

Outro

|---------------------------|
|---------------------------|
|---------------------------|
|-0-00-3020-00-3020-00-3020-|





Share "Undead" by Haunted


TOP 10 TABS

FRESH NEW TABS

ALL ARTISTS
artist wiki

TabSpace.com / contact us / privacy policy / tabspace toolbar
Copyright 2004 - 2022 TabSpace.com - All Rights Reserved.
song: undead bass tabs by haunted