:: Guitar & Bass Tabs Make Home Page
A B C D E F G H I J K L M N O P Q R S T U V W X Y Z #

  for    

On TABSPACE
Info About This Tab
Artist: Insane Clown Posse
Tab Type: Guitar
Difficulty: novice
Rate This Tab!
ICP

14.Vera Lee



Intro and verse:(keyboards into a guitar)
e|-----------------------------------------------------|
B|-----------------------------------------------------|
G|-----------------------------------------------------|
D|-----------------------------------------------------|
A|-3---2-----------------------------------------------|
E|---------3-1-----------------------------------------|


chorus 1:
e|-----------------------------------------------------|
B|-----------------------------------------------------|
G|-----------------------------------------------------|
D|-5--4------------------------------------------------|
A|-3--2---5---3----------------------------------------|
E|--------3---1----------------------------------------|

Chorus 2:
e|-----------------------------------------------------|
B|-----------------------------------------------------|
G|-----------------------------------------------------|
D|-5--4------------------------------------------------|
A|-3--2---5---3----------------------------------------|
E|--------3---1----------------------------------------|


e|-----------------------------------------------------|
B|-----------------------------------------------------|
G|-----------------------------------------------------|
D|-----------------------------------------------------|
A|-3-3-3-3-3-3-3-2-2-2-2-2-2-2-2-----------------------|
E|-------------------------------3-3-3-3-3-3-3-3-1-1-1-|

PM-----------------------------------------------------|

e|-----------------------------------------------------|
B|-----------------------------------------------------|
G|-----------------------------------------------------|
D|-----------------------------------------------------|
A|-----------------------------------------------------|
E|-1-1-1-1-1-------------------------------------------|

PM-----------------------------------------------------|


Share "Vera Lee" by Insane Clown Posse


TOP 10 TABS

FRESH NEW TABS

ALL ARTISTS
artist wiki

TabSpace.com / contact us / privacy policy / tabspace toolbar
Copyright 2004 - 2022 TabSpace.com - All Rights Reserved.
song: vera lee guitar tabs by insane clown posse