:: Guitar & Bass Tabs Make Home Page
A B C D E F G H I J K L M N O P Q R S T U V W X Y Z #

  for    

On TABSPACE
Info About This Tab
Artist: Kasabian
Tab Type: Bass
Rate This Tab!
Intro has no bass..

Verse:
00:30 - 01:00
G|---------------|
D|---------------|
A|---------------|
E|0/3R-----------|
Play at the beggining of every riff for 30 seconds


Chorus (01:08-01:42):
G|---------------------------------|
D|---------------------------------|
A|----9-----9/\------9-----7-66-5--|
E|8-8---8-8------8-8---8-8---------|

Bridge Thing:
01:50 - 01:56
G|1098
D|----
A|----
E|----
10's not 1,0's

Verse:
02:06 - 02:10
G|---------------|
D|---------------|
A|----5-----565--|
E|3-3---3-3------|

02:11 and 02:15
G|---------------|
D|---------------|
A|---------------|
E|0/3R-----------|

02:18
G|-----
D|-----
A|8-88-
E|-----

Chorus:
02:19 - 02:40
G|---------------------------------|
D|---------------------------------|
A|----9-----9/\------9-----7-66-5--|
E|8-8---8-8------8-8---8-8---------|

Bridge (get lose bit):
02:52 - 03:08
G|--------------------------------|
D|--------------------------------|
A|----5-----565-----5-----5-33-0--|
E|3-3---3-3-----3-3---3-3---------|

Chorus:
03:10 - 03:25
G|---------------|
D|---------------|
A|---------------|
E|0/3R-----------|

03:26 - 04:16
G|---------------------------------|
D|---------------------------------|
A|----9-----9/\------9-----7-66-5--|
E|8-8---8-8------8-8---8-8---------|


I wrote this in about 12 minutes..
with crap head phones
so please be kind with your ratings haha


Share "Vlad The Impaler" by Kasabian


TOP 10 TABS

FRESH NEW TABS

ALL ARTISTS
artist wiki

TabSpace.com / contact us / privacy policy / tabspace toolbar
Copyright 2004 - 2022 TabSpace.com - All Rights Reserved.
song: vlad the impaler bass tabs by kasabian